Oops, an error
Loading. Please wait.

Liar Liar Burn In Hell tab

version 1
version 1

Whole song

Interactive

13,675 views 3 this week
15 commentsread comments
1 2 3 4 5
x 20
add to favorites
×
Save as Personal and add changes to this tab that will be seen only by you. Learn more ›
×
You can save this tab as Personal to edit and correct it or add notes. All changes will be seen only by you. Learn more »
launch autoscroll
font size
0
reset
how to read this tab
guitar tuner
backing track
0:00
0:00
edit
Autoscroll
slow
fast
+/-
esc
set tempo
stop
Author
Song Title: Liar, Liar (Burn In Hell)
Artist: The Used
Album: Lies For The Liars

Ins.:
	Gtr 1 – Quinn Allman (lead)
	Gtr 2 – Quinn Allman (rhythm)

Tuning: Standard


I. INTRO

(AMBULANCE SIGNAL)

Gtr 1
e|-----------------------------------------|4x
B|--9--9--------9--9-------8--8-----8------|
G|--x--x--9--9--x--x--9-~--x--x--9--x--9---|
D|--11-11-11-11-11-11-11~--11-11-11-11-11--|
A|-----------------------------------------|
E|-----------------------------------------|
Gtr 2
e|-----------------------------------|3x
B|-----------------------------------|
G|--6-6-6-6-6-6-6-6-6-6-6-6-6-6-6-6--|
D|--6-6-6-6-6-6-6-6-6-6-6-6-6-6-6-6--|
A|--4-4-4-4-4-4-4-4-4-4-4-4-4-4-4-4--|
E|-----------------------------------|
(continued)
e|-----------------------------------|
B|-----------------------------------|
G|--6-6-6-6-6-6-6-6---6-6-6-6-6-6----|
D|--6-6-6-6-6-6-6-6---6-6-6-6-6-6----|
A|--4-4-4-4-4-4-4-4---4-4-4-4-4-4----|
E|-----------------------------------|



Gtr 1
e|-----------------------------------------|2x
B|--9--9--------9--9-------8--8-----8------|
G|--x--x--9--9--x--x--9-~--x--x--9--x--9---|
D|--11-11-11-11-11-11-11~--11-11-11-11-11--|
A|-----------------------------------------|
E|-----------------------------------------|
Gtr 2
e|-----------------------------------|-----------------------------------|
B|-----------------------------------|-----------------------------------|
G|--6-6-6-6-6-6-6-6-6----------------|--6-6-6-6-6-6-6-6-6----------------|
D|--6-6-6-6-6-6-6-6-6-7-7-7-7-4-4-4--|--6-6-6-6-6-6-6-6-6-7-7-7-7-4-4-4--|
A|--4-4-4-4-4-4-4-4-4-7-7-7-7-4-4-4--|--4-4-4-4-4-4-4-4-4-7-7-7-7-4-4-4--|
E|--------------------5-5-5-5-2-2-2--|--------------------5-5-5-5-2-2-2--|

Gtr 1
e|-----------------------------------------|---------------------------------|
B|--9--9--------9--9-------8--8-----8------|---------------------------------|
G|--x--x--9--9--x--x--9-~--x--x--9--x--9---|--15151515151515-14141414141414--|
D|--11-11-11-11-11-11-11~--11-11-11-11-11--|--11111111111111-11111111111111--|
A|-----------------------------------------|---------------------------------|
E|-----------------------------------------|---------------------------------|
Gtr 2
e|-----------------------------------|-----------------------------------|
B|-----------------------------------|-----------------------------------|
G|--6-6-6-6-6-6-6-6-6----------------|-----------------------------------|
D|--6-6-6-6-6-6-6-6-6-7-7-7-7-4-4-4--|--4-4-4-4-4-4-4-4---7-7-7-7-7-7-7--|
A|--4-4-4-4-4-4-4-4-4-7-7-7-7-4-4-4--|--4-4-4-4-4-4-4-4---7-7-7-7-7-7-7--|
E|--------------------5-5-5-5-2-2-2--|--2-2-2-2-2-2-2-2---5-5-5-5-5-5-5--|



II. VERSE 1

Gtr 1
e|-----------------------------------|-----------------------------------|
B|-----------------------------------|-----------------------------------|
G|-----------------------------------|-----------------------------------|
D|--6-6-6-6-6-6-6-6-6-6-6-6-6-6-6-6--|--6-6-6-6-6-6-6-6-6-6-6-6-6-6-6-6--|
A|--4-4-4-4-4-4-4-4-4-4-4-4-4-4-4-4--|--4-4-4-4-4-4-4-4-4-4-4-4-4-4-4-4--|
E|-----------------------------------|-----------------------------------|
PM| . . . . . . . . . . . . . . . .  |  . . . . . . . . . . . . . . . .  |
(continued)
e|-----------------------------------|-----------------------------------|
B|-----------------------------------|-----------------------------------|
G|-----------------------------------|-----------------------------------|
D|-----------------------------------|--6-6-6-6-6-6-6-6-6-6-6-6-6-6-6-6--|
A|--7-7-7-7-7-7-7-7-4-4-4-4-4-4-4-4--|--4-4-4-4-4-4-4-4-4-4-4-4-4-4-4-4--|
E|--5-5-5-5-5-5-5-5-2-2-2-2-2-2-2-2--|-----------------------------------|
PM| . . . . . . . . . . . . . . . .  |  . . . . . . . . . . . . . . . .  |
(continued)
e|-----------------------------------|
B|-----------------------------------|
G|--------------------------6-6-6-6--|
D|--6-6-6-6-6-6-6-6-6-6-6-6-6-6-6-6--|
A|--4-4-4-4-4-4-4-4-4-4-4-4-4-4-4-4--|
E|-----------------------------------|
PM| . . . . . . . . . . . .          |



III. PRE - CHORUS

Gtr 1
e|-----------------------------------|-----------------------------------|
B|-----------------------------------|-----------------------------------|
G|-----------------------------------|--4-4-4-4-4-4-4-4-4~~-------5-5-5--|
D|--7-7-7-7-7-7-7-7-7-7-7-7-7-7-7-7--|--4-4-4-4-4-4-4-4-4~~-------x-x-x--|
A|--7-7-7-7-7-7-7-7-7-7-7-7-7-7-7-7--|--2-2-2-2-2-2-2-2-2~~-------3-3-3--|
E|--5-5-5-5-5-5-5-5-5-5-5-5-5-5-5-5--|-----------------------------------|



IV. CHORUS

Gtr 1 (or both guitars)
e|-----------------------------------|-----------------------------------|2x
B|-----------------------------------|-----------------------------------|
G|--6-6-6-6-6-6-6-6-6----------------|--------------------5-5-5-5-5-5-5--|
D|--6-6-6-6-6-6-6-6-6-7-7-7-7-7-7-7--|--2-2-2-2-2-2-2-2-2-5-5-5-5-5-5-5--|
A|--4-4-4-4-4-4-4-4-4-7-7-7-7-7-7-7--|--2-2-2-2-2-2-2-2-2-3-3-3-3-3-3-3--|
E|--------------------5-5-5-5-5-5-5--|--0-0-0-0-0-0-0-0-0----------------|



V. POST - CHORUS

Gtr 1
e|-----------------------------------------|2x
B|--9--9--------9--9-------8--8-----8------|
G|--x--x--9--9--x--x--9-~--x--x--9--x--9---|
D|--11-11-11-11-11-11-11~--11-11-11-11-11--|
A|-----------------------------------------|
E|-----------------------------------------|
Gtr 2
e|-----------------------------------|-----------------------------------|
B|-----------------------------------|-----------------------------------|
G|--6-6-6-6-6-6-6-6-6-6-6-6-6-6-6-6--|--6-6-6-6-6-6-6-6---6-6-6-6-6-6----|
D|--6-6-6-6-6-6-6-6-6-6-6-6-6-6-6-6--|--6-6-6-6-6-6-6-6---6-6-6-6-6-6----|
A|--4-4-4-4-4-4-4-4-4-4-4-4-4-4-4-4--|--4-4-4-4-4-4-4-4---4-4-4-4-4-4----|
E|-----------------------------------|-----------------------------------|



VI. VERSE 2

Here, I don’t think there’s a guitar playing on the first part (not sure),
I think guitars start when he sings, “You will burn in hell, they say...”:

(REPEAT PRE - CHORUS)
(REPEAT CHORUS)



VII. BRIDGE

I’m not quite sure on this part.

Gtr 1
e|------4x------|-----------------------------------------------------------|
B|---------8~~--|-----------------------------------------------------------|
G|---------9~~--|-----------------------------------------------------------|
D|--------------|--7-7-7-7-7-7-7-7-7-7-7-7-7-7-7-7-7-7-7-7-7-7-7-7-7-7-7-7--|
A|--2-4-4-------|--7-7-7-7-7-7-7-7-7-7-7-7-7-7-7-7-7-7-7-7-7-7-7-7-7-7-7-7--|
E|--------------|--5-5-5-5-5-5-5-5-5-5-5-5-5-5-5-5-5-5-5-5-5-5-5-5-5-5-5-5--|
(continued)
e|------3x------|-----------------------|
B|---------8~~--|-----------------------|
G|---------9~~--|-----------------------|
D|--------------|----6-6-6-6-6-6-6-6-6--|
A|--2-4-4-------|--2-4-4-4-4-4-4-4-4-4--|
E|--------------|-----------------------|

Gtr 2
e|------4x------|-----------------------------------------------------------|
B|--------------|-----------------------------------------------------------|
G|--4-6----6~~--|-----------------------------------------------------------|
D|--x-x----x----|--7-7-7-7-7-7-7-7-7-7-7-7-7-7-7-7-7-7-7-7-7-7-7-7-7-7-7-7--|
A|--2-4----4~~--|--7-7-7-7-7-7-7-7-7-7-7-7-7-7-7-7-7-7-7-7-7-7-7-7-7-7-7-7--|
E|--------------|--5-5-5-5-5-5-5-5-5-5-5-5-5-5-5-5-5-5-5-5-5-5-5-5-5-5-5-5--|
(continued)
e|------3x------|-----------------------|
B|--------------|-----------------------|
G|---------6~~--|-----------------------|
D|---------6~~--|----6-6-6-6-6-6-6-6-6--|
A|--2-4-4--4~~--|--2-4-4-4-4-4-4-4-4-4--|
E|--------------|-----------------------|

(REPEAT PRE - CHORUS, palm muted)
(REPEAT CHORUS 2x)

Note: On Chorus 2nd repeat, Gtr 1 changes to:
Gtr 1
e|---------------------------------------------------|4x
B|--------------------12-12--------------------------|
G|--13-13-------14-14-------14-13-13-14-13-11--------|
D|--------14-14-------------------------------14-14--|
A|---------------------------------------------------|
E|---------------------------------------------------|



VIII. OUTRO

Gtr 1
e|-----------------------------------------|4x
B|--9--9--------9--9-------8--8-----8------|
G|--x--x--9--9--x--x--9-~--x--x--9--x--9---|
D|--11-11-11-11-11-11-11~--11-11-11-11-11--|
A|-----------------------------------------|
E|-----------------------------------------|
Gtr 2
e|-----------------------------------|3x
B|-----------------------------------|
G|--6-6-6-6-6-6-6-6-6-6-6-6-6-6-6-6--|
D|--6-6-6-6-6-6-6-6-6-6-6-6-6-6-6-6--|
A|--4-4-4-4-4-4-4-4-4-4-4-4-4-4-4-4--|
E|-----------------------------------|
(continued)
e|-----------------------------------|
B|-----------------------------------|
G|--6-6-6-6-6-6-6-6---6-6-6-6-6-6----|
D|--6-6-6-6-6-6-6-6---6-6-6-6-6-6----|
A|--4-4-4-4-4-4-4-4---4-4-4-4-4-4----|
E|-----------------------------------|


End on:
Both guitars
e|-------|
B|-------|
G|--6~~--|
D|--6~~--|
A|--4~~--|
E|-------|

            
            
Suggest correction
Creating personal tab
Creating personal tab
You can edit any tab online and save it as your Personal.

You can edit, replace or remove any tab part or add personal notes – all changes will be seen only by you.

Personal tabs can be accessed anytime from any device, even offline.
Learn more »
comments
print report bad tab
15 comments total. Showing first comments.
0 reply
shugo449 530 May 09, 2007 04:06 AM

yay! 5*

0 reply
randomkiller 332 May 09, 2007 03:01 PM

dude awesome tab i needed one too.

0 reply
doobidoo 6,271 May 11, 2007 04:31 AM

Pinoy rocks!!!...add mo nga sa frndster... f_sario@yahoo.com hehehe...5*****

guest
You may want to rate the tab now too:
select rating
Wanna post a correction for this tab? Suggest correction