Oops, an error
Loading. Please wait.

Light With A Sharpened Edge tab

version 3
version 3

Whole song

Interactive

6,481 views 1 this week
3 commentsread comments
1 2 3 4 5
x 5
add to favorites
×
Save as Personal and add changes to this tab that will be seen only by you. Learn more ›
×
You can save this tab as Personal to edit and correct it or add notes. All changes will be seen only by you. Learn more »
launch autoscroll
font size
0
reset
how to read this tab
guitar tuner
edit
Autoscroll
slow
fast
+/-
esc
set tempo
stop
Author
-------------------------------------------------------------------------------
                    Light With A Sharpened Edge - The Used
-------------------------------------------------------------------------------
Tabbed by: f1f2
Email: ???

Tuning: Drop D (DADGBe)

Artist: The Used
Title: Light With A Sharpened Edge
Album: In Love and Death
Track No.: 8
Song Duration: 3:32

i made tabs for this song (guitar pro and this one). i made the guitar pro
tab first then this, because some guitarists doesn't have Guitar Pro in their
pc's, or some don't even have pc's (no offense).  That's why i made this.
Please rate both my tabs!!!

Intro:
Gtr.1:
e|-10-10-10-10-12-14-|-12-12-12-10-12-14-|-9-9-9-9-9-9-|-------------------|
B|-------------------|-------------------|-------------|-12-12-12-12-10-10-|
G|-------------------|-------------------|-------------|-------------------|
D|-------------------|-------------------|-------------|-------------------|
A|-------------------|-------------------|-------------|-------------------|
D|-------------------|-------------------|-------------|-------------------|

e|-10-10-10-10-12-14-|-12-12-12-10-12-14-|-9-10-9-9-9-9-|----------------------|
B|-------------------|-------------------|--------------|-12-12-12-10-12-10-12-|
G|-------------------|-------------------|--------------|----------------------|
D|-------------------|-------------------|--------------|----------------------|
A|-------------------|-------------------|--------------|----------------------|
D|-------------------|-------------------|--------------|----------------------|

Gtr.2:
e|-------------|-------------|-------------|(1st:repeat)-|---|
B|-------------|-------------|-------------|(2nd:play>>>)|---|
G|-4-4-4-4-4-4-|-7-7-7-7-7-7-|-------------|-------------|-4-|
D|-4-4-4-4-4-4-|-7-7-7-7-7-7-|-7-7-7-7-7-7-|-5-5-5-5-5-5-|-4-|
A|-2-2-2-2-2-2-|-5-5-5-5-5-5-|-7-7-7-7-7-7-|-5-5-5-5-5-5-|-2-|
D|-------------|-------------|-7-7-7-7-7-7-|-5-5-5-5-5-5-|---|


Verse 1:
Gtr.2:
(repeat this 4 times - not sure though)
e|-------------|-------------|-------------|-------------|
B|-----7-----7-|-----5-----5-|-----5-----5-|-----8-----8-|
G|---7-----7---|---6-----6---|---6-----6---|---6-----6---|
D|-9-----9-----|-7-----7-----|-7-----7-----|-7-----7-----|
A|-------------|-------------|-------------|-------------|
D|-------------|-------------|-------------|-------------|


Chorus 1: With one guitar only
Gtr.1:
e|-10-10-10-10-10-10-|-14-14-14-14-14-14-|-------17--(4x)-|
B|-------------------|-------------------|-14h15----------|
G|-------------------|-------------------|----------------|
D|-------------------|-------------------|----------------|
A|-------------------|-------------------|----------------|
D|-------------------|-------------------|----------------|


Verse 2:
Gtr.1:
e|-10-|just tremolo pick this note, while tapping it
B|----|not sure again... but this is how I play it
G|----|
D|----|
A|----|
D|----|

Gtr.2:
(repeat this 4 times - not sure though)
e|-------------|-------------|-------------|-------------|
B|-----7-----7-|-----5-----5-|-----5-----5-|-----8-----8-|
G|---7-----7---|---6-----6---|---6-----6---|---6-----6---|
D|-9-----9-----|-7-----7-----|-7-----7-----|-7-----7-----|
A|-------------|-------------|-------------|-------------|
D|-------------|-------------|-------------|-------------|

Before chorus, gtr.1 plays this distorted, while getting louder
Gtr.1:
e|-------------------------|
B|-------------------------|
G|-------------------------|
D|-5-5-5-5-5-5-5-5-5-5-5-5-|
A|-5-5-5-5-5-5-5-5-5-5-5-5-|
D|-5-5-5-5-5-5-5-5-5-5-5-5-|


Chorus 2:
(i'm not sure of 2 gtrs play it but i'm sure these are the notes played
Both Guitars (?): distorted
e|-------------|-------------|-------------|-------------|
B|-------------|-------------|-------------|-------------|(3x, then:)
G|-------------|-------------|-------------|-------------|
D|-0-0-0-0-0-0-|-4-4-4-4-4-4-|-5-5-5-5-5-5-|-5-5-5-5-7-7-|
A|-0-0-0-0-0-0-|-4-4-4-4-4-4-|-5-5-5-5-5-5-|-5-5-5-5-7-7-|
D|-0-0-0-0-0-0-|-4-4-4-4-4-4-|-5-5-5-5-5-5-|-5-5-5-5-7-7-|

e|-------------|-------------|-------------|-------------|
B|-------------|-------------|-------------|-------------|
G|-------------|-------------|-------------|-------------|
D|-0-0-0-0-0-0-|-4-4-4-4-4-4-|-5-5-5-5-5-5-|-5-5-5-5-5-5-|
A|-0-0-0-0-0-0-|-4-4-4-4-4-4-|-5-5-5-5-5-5-|-5-5-5-5-5-5-|
D|-0-0-0-0-0-0-|-4-4-4-4-4-4-|-5-5-5-5-5-5-|-5-5-5-5-5-5-|


Bridge Part 1: "Is there another side..."
Gtr.1:
e|---------|---------|-------------|-------------------|
B|---------|---------|-------------|-------------------|
G|-4-4-4-4-|-3-3-3-3-|-7-7-7-9-9-9-|-11-11-11-11-11-11-|(2x)
D|-4-4-4-4-|-3-3-3-3-|-7-7-7-x-x-x-|--x--x--x--x--x--x-|
A|-2-2-2-2-|-1-1-1-1-|-5-5-5-7-7-7-|--9--9--9--9--9--9-|
D|---------|---------|-------------|-------------------|

Gtr.2:
e|---------|---------|-------------|-------------|
B|---------|---------|-------------|-------------|(2x)
G|-4-4-4-4-|-3-3-3-3-|-7-7-7-7-7-7-|-7-7-7-7-7-7-|
D|-4-4-4-4-|-3-3-3-3-|-7-7-7-7-7-7-|-7-7-7-7-7-7-|
A|-2-2-2-2-|-1-1-1-1-|-5-5-5-5-5-5-|-5-5-5-5-5-5-|
D|---------|---------|-------------|-------------|


Bridge Part 2: "I'll let you know when I go..."
Gtr.1:
e|--------------|--------------|-------------|-------------------|
B|--------------|--------------|-------------|-------------------|
G|-4-4-4-4------|-3-3-3-3------|-7-7-7-9-9-9-|-11-11-11-11-11-11-|(2x)
D|-4-4-4-4-4444-|-3-3-3-3-3333-|-7-7-7-x-x-x-|--x--x--x--x--x--x-|
A|-2-2-2-2-2222-|-1-1-1-1-1111-|-5-5-5-7-7-7-|--9--9--9--9--9--9-|
D|--------------|--------------|-------------|-------------------|

Gtr.2:
e|--------------|--------------|-------------|-------------|
B|--------------|--------------|-------------|-------------|(2x)
G|-4-4-4-4------|-3-3-3-3------|-7-7-7-7-7-7-|-7-7-7-7-7-7-|
D|-4-4-4-4-4444-|-3-3-3-3-3333-|-7-7-7-7-7-7-|-7-7-7-7-7-7-|
A|-2-2-2-2-2222-|-1-1-1-1-1111-|-5-5-5-5-5-5-|-5-5-5-5-5-5-|
D|--------------|--------------|-palm--muted-|-palm--muted-|


Part Just Before The Solo: "When I'm gone..."
Gtr.2: (palm muted and softly)
e|-------------------------|
B|-------------------------|
G|-------------------------|
D|-------------------------|
A|-7-7-7-7-7-7-7-7-7-7-7-7-|
D|-7-7-7-7-7-7-7-7-7-7-7-7-|

Gtr.1:
e|-------------------------------------|
B|-10-10-10-10-10-10-10-10-10-10-10-10-|
G|-------------------------------------|
D|-------------------------------------|
A|-------------------------------------|
D|-------------------------------------|


Pre-Solo:
Play first the intro (for both guitars)


Main Solo:
Gtr.2:
e|-------------|-------------|-------------|-------------|
B|-------------|-------------|-------------|-------------|
G|-4-4-4-4-4-4-|-7-7-7-7-7-7-|-------------|-------------|(2x)
D|-4-4-4-4-4-4-|-7-7-7-7-7-7-|-7-7-7-7-7-7-|-5-5-5-5-5-5-|
A|-2-2-2-2-2-2-|-5-5-5-5-5-5-|-7-7-7-7-7-7-|-5-5-5-5-5-5-|
D|-------------|-------------|-7-7-7-7-7-7-|-5-5-5-5-5-5-|
(on the second play, just keep strumming the last notes, then:)

e|----|
B|----|
G|-4~-|
D|-4~-|
A|-2~-|
D|----|

Gtr.1:
e|-14-14----14-14-----|----------14-14-----|----------12-12----|
B|-------12-------12b-|-12-12-12-------12b-|-12-12-12-------12-|
G|--------------------|--------------------|-------------------|
D|--------------------|--------------------|-------------------|
A|--------------------|--------------------|-------------------|
D|--------------------|--------------------|-------------------|


e|-12----------10-10-10-|-10-10----14-14----|-12-12----14-14-----|
B|----10h12p10----------|-------12-------12-|-------12-------12b-|
G|----------------------|-------------------|--------------------|
D|----------------------|-------------------|--------------------|
A|----------------------|-------------------|--------------------|
D|----------------------|-------------------|--------------------|


e|----------14-14----|-12-12----12-12----|-14-14-14-14-14-14-|
B|-12-12-12-------12-|-------12-------12-|-------------------|
G|-------------------|-------------------|-------------------|
D|-------------------|-------------------|-------------------|
A|-------------------|-------------------|-------------------|
D|-------------------|-------------------|-------------------|


e|-15-15-15-15-15-15-|-17-17-17-17-17-17-|-17-17-17-17-17-17-|-17b-|
B|-------------------|-------------------|-------------------|-----|
G|-------------------|-------------------|-------------------|-----|
D|-------------------|-------------------|-------------------|-----|
A|-------------------|-------------------|-------------------|-----|
D|-------------------|-------------------|-------------------|-----|


After Solo (Soft Chorus):
Gtr.2:
e|-------------|-------------|-------------|-------------|
B|-----7-----7-|-----5-----5-|-----5-----5-|-----8-----8-|
G|---7-----7---|---6-----6---|---6-----6---|---6-----6---|(2x)
D|-9-----9-----|-7-----7-----|-7-----7-----|-7-----7-----|
A|-------------|-------------|-------------|-------------|
D|-------------|-------------|-------------|-------------|

Gtr.1: (play it just before the instrumental chorus)
e|-------------------------|
B|-------------------------|
G|-------------------------|
D|-5-5-5-5-5-5-5-5-5-5-5-5-|
A|-5-5-5-5-5-5-5-5-5-5-5-5-|
D|-5-5-5-5-5-5-5-5-5-5-5-5-|


Chorus (again):
Gtr.1:
e|----2----|----2----|----3----|----3--------|
B|----3----|----3----|----3----|----3--------|
G|----x----|----x----|----x----|----x--------|(2x)
D|-0--0--0-|-4--4--4-|-5--5--5-|-5--5--5-7-7-|
A|-0--0--0-|-4--4--4-|-5--5--5-|-5--5--5-7-7-|
D|-0--0--0-|-4--4--4-|-5--5--5-|-5--5--5-7-7-|

(Then do a PICKSLIDE)

Gtr.2:
e|-------------|-------------|-------------|-------------|
B|-------------|-------------|-------------|-------------|
G|-------------|-------------|-------------|-------------|
D|-0-0-0-0-0-0-|-4-4-4-4-4-4-|-5-5-5-5-5-5-|-5-5-5-5-7-7-|
A|-0-0-0-0-0-0-|-4-4-4-4-4-4-|-5-5-5-5-5-5-|-5-5-5-5-7-7-|
D|-0-0-0-0-0-0-|-4-4-4-4-4-4-|-5-5-5-5-5-5-|-5-5-5-5-7-7-|

e|-------------|-------------|-------------|-------------|
B|-------------|-------------|-------------|-------------|
G|-------------|-------------|-------------|-------------|
D|-0-0-0-0-0-0-|-4-4-4-4-4-4-|-5-5-5-5-5-5-|-5-5-5-5-5-5-|
A|-0-0-0-0-0-0-|-4-4-4-4-4-4-|-5-5-5-5-5-5-|-5-5-5-5-5-5-|
D|-0-0-0-0-0-0-|-4-4-4-4-4-4-|-5-5-5-5-5-5-|-5-5-5-5-5-5-|


Last Chorus:
Gtr.1:
e|-------------|-------------|-------------|-------------|
B|-------------|-------------|-------------|-------------|
G|-------------|-------------|-------------|-------------|
D|-0-0-0-0-0-0-|-4-4-4-4-4-4-|-5-5-5-5-5-5-|-5-5-5-5-7-7-|
A|-0-0-0-0-0-0-|-4-4-4-4-4-4-|-5-5-5-5-5-5-|-5-5-5-5-7-7-|
D|-0-0-0-0-0-0-|-4-4-4-4-4-4-|-5-5-5-5-5-5-|-5-5-5-5-7-7-|

e|-------------|-------------|-------------|-------------|
B|-------------|-------------|-------------|-------------|
G|-------------|-------------|-------------|-------------|
D|-0-0-0-0-0-0-|-4-4-4-4-4-4-|-5-5-5-5-5-5-|-5-5-5-5-5-5-|
A|-0-0-0-0-0-0-|-4-4-4-4-4-4-|-5-5-5-5-5-5-|-5-5-5-5-5-5-|
D|-0-0-0-0-0-0-|-4-4-4-4-4-4-|-5-5-5-5-5-5-|-5-5-5-5-5-5-|


Ending:
Gtr.1:
Play again the intro, then:
e|-------------------------------------|
B|-12-12-12-12-12-12-14-14-14-14-14-14-|
G|-------------------------------------|
D|-------------------------------------|
A|-------------------------------------|
D|-------------------------------------|

Bert: "Well, let's just go back to the beginning."

            
            
Suggest correction
Creating personal tab
Creating personal tab
You can edit any tab online and save it as your Personal.

You can edit, replace or remove any tab part or add personal notes – all changes will be seen only by you.

Personal tabs can be accessed anytime from any device, even offline.
Learn more »
comments
print report bad tab
3 comments total.
0 reply
geminivenom 10 Aug 05, 2006 01:56 AM

hey man great tab, also checked your guitar pro tab on this song, and both were great, 5 starssss!!!

0 reply
j_frog234 10 Sep 15, 2006 05:02 AM

nice tab

0 reply
ChocoMilkShaker 10 Mar 22, 2007 01:16 PM

I think the first part of the intro has some errors. I listened to and and played it and I think it should be this. I'm not good at writing tabs though.


e -10-10-10-12-12-14-12-12-12-10-12-14

guest
You may want to rate the tab now too:
select rating
Wanna post a correction for this tab? Suggest correction