Oops, an error
Loading. Please wait.
We have an official On My Own tab made by UG professional guitarists. Check out the tab »
×
57,798 views 66 this week
3 commentsread comments
1 2 3 4 5
x 11
add to favorites
×
Save as Personal and add changes to this tab that will be seen only by you. Learn more ›
×
You can save this tab as Personal to edit and correct it or add notes. All changes will be seen only by you. Learn more »
launch autoscroll
font size
0
reset
how to read this tab
guitar tuner
edit
Autoscroll
slow
fast
+/-
esc
set tempo
stop
Technically your picking this D chord for the intro and whenever else he does it:
D |------0--------------|
A |------0--------------|
F#|------6--------------|
D |------7--------------|
A |------5--------------|
D |------0--------------|

Heres some what of an easier version but i think just listening to the song
and just picking kinda like he does it much more easier.  It's quiet an easy
song.  

**Let all the strings ring when u pick and strum chords unless stated otherwise**

 [Intro]
D |--------0-------0------------0-------0------------------------------------------|
A |-----------------0--------------------0-----------------------------------------|
F#|-----6------------6--------6-----------6----x-x-x-x-x-x-x-x-x-x-x-x-x-x-x-x-x-x-|
D |---7----------7----------7---------7--------4-4-4-4-4-4-4-4-4-4-4-4/7-7-7-7-7-7-|
A |-5----------5----------5---------5----------4-4-4-4-4-4-4-4-4-4-4-4/7-7-7-7-7-7-|
D |-0-------------------------------0----------4-4-4-4-4-4-4-4-4-4-4-4/7-7-7-7-7-7-|

D |--------0-------0------------0-------0-----------------------------------------------------|
A |-----------------0--------------------0----------------------------------------------------|
F#|-----6------------6--------6-----------6----x-x-x-x-x-x-x-x-x-x-x-x--------4----4----4-----|
D |---7----------7----------7---------7--------4-4-4-4-4-4-4-4-4-4-4-4--------4----4----4-----|
A |-5----------5----------5---------5----------4-4-4-4-4-4-4-4-4-4-4-4--------4----4----4-----|
D |-0-------------------------------0----------4-4-4-4-4-4-4-4-4-4-4-4--------4----4----4-----|

 [Verse]
D |--------0-------0------------0-------0------------------------------------------|
A |-----------------0--------------------0-----------------------------------------|
F#|-----6------------6--------6-----------6----x-x-x-x-x-x-x-x-x-x-x-x-x-x-x-x-x-x-|
D |---7----------7----------7---------7--------4-4-4-4-4-4-4-4-4-4-4-4/7-7-7-7-7-7-|
A |-5----------5----------5---------5----------4-4-4-4-4-4-4-4-4-4-4-4/7-7-7-7-7-7-|
D |-0-------------------------------0----------4-4-4-4-4-4-4-4-4-4-4-4/7-7-7-7-7-7-|

 [Chorus]
D |----------------------------------------------------------------------------------------|
A |----------------------------------------------------------------------------------------|
F#|--9-9-9-9-9-9-9-9-9-9-9-9-9-9--x-x-x-x-x-x-x-x-x-x-x-x-x-x--9-9-9-9-9-9-9-9-9-9-9-9-9-9-|-Than back to
D |--9-9-9-9-9-9-9-9-9-9-9-9-9-9--4-4-4-4-4-4-4-4-4-4-4-4-4-4--9-9-9-9-9-9-9-9-9-9-9-9-9-9-| Picking D
A |--7-7-7-7-7-7-7-7-7-7-7-7-7-7--4-4-4-4-4-4-4-4-4-4-4-4-4-4--7-7-7-7-7-7-7-7-7-7-7-7-7-7-| Like Intro
D |--9-9-9-9-9-9-9-9-9-9-9-9-9-9--4-4-4-4-4-4-4-4-4-4-4-4-4-4--9-9-9-9-9-9-9-9-9-9-9-9-9-9-|

Thats Pretty much all your really need to know.  Just listen to the song.
The Chords just repeat itself.

For comments or questions, e-mail me at jeremy645@hotmail.com

************************************

| x  Dead note
| /  Slide up

************************************

            
            
Suggest correction
Creating personal tab
Creating personal tab
You can edit any tab online and save it as your Personal.

You can edit, replace or remove any tab part or add personal notes – all changes will be seen only by you.

Personal tabs can be accessed anytime from any device, even offline.
Learn more »
comments
print report bad tab
3 comments total.
0 reply
emerica 10 Nov 07, 2002 07:00 PM

Oops, i just realized that the keys labled for the tabs are wrong. It is Open D tuning : D A d g a e

So the strings should read

e-------------
a-------------
g-------------
d-------------
A-------------
D-------------

If you don't know how to tune your guitar, heres the instructions(Strings order from top to bottom):
1. Tune the top string, to the 3rd string.
2. Tune the 2nd to the last string to, the 3rd to the last string while holding the 2nd fret.

**True open D tuning would do steps 1 & 2, and after step 2, you would tune the bottom string to the 2nd to the last string while holding 5th fret.

+1 reply
SlyBiscut 126 Mar 14, 2004 07:00 PM

the picking is wrong in the verses

0 reply
The ginger one 10 Jul 05, 2004 08:00 PM

you can use a capo on the second fret then use a Cadd9 chord (032033)this will skip having to change the tuning and it makes it easier to play! but both ways are good!

guest
Wanna post a correction for this tab? Suggest correction