Oops, an error
Loading. Please wait.

Paralyzed intro tab

version 1
version 1

Intro

Whole song

Interactive

5,623 views 1 this week
2 commentsread comments
1 2 3 4 5
x 7
add to favorites
×
Save as Personal and add changes to this tab that will be seen only by you. Learn more ›
×
You can save this tab as Personal to edit and correct it or add notes. All changes will be seen only by you. Learn more »
launch autoscroll
font size
0
reset
how to read this tab
guitar tuner
edit
Autoscroll
slow
fast
+/-
esc
set tempo
stop
Difficulty
intermediate
-------------------------------------------------------------------------------
                             paralyzed - the used
-------------------------------------------------------------------------------
Tabbed by: Louise
Email: sproulerulz@hotmail.com

Tuning: normal or drop d

ok, so far I haven't seen a correct intro tab so ill make one myself. just to be
I'm tabbing it in normal and drop d. normal for all those people who want to play it 
that
drop d because it sounds good. its only the intro though sorry I haven't been bothered 
learn the rest.
e|---------------------------------------------------------------------------|
B|---------------------------------------------------------------------------|
G|---------------------------------------------------------------------------|
D|-----4-44-------------------------------4-44-------------------------------|
A|-----------------4-5-4-55-5-5-5-2-4-5-4------------4-5-4-55-5-5-5-7-4-5-4--|
E|-----------2-4-5-----------------------------2-4-5-------------------------|

e|---------------------------------------------------------------------------|
B|--6-66------------------------------6-66-----------------------------------|
G|--6-66-------6-7-6-77-7-7-7-4-6-7-6-6-66-------6-7-6-77-7-7-7-9-6-7-6------|
D|--4-44-4-6-7-6-7-6-77-7-7-7-4-6-7-6-4-44-4-6-7-6-7-6-77-7-7-7-9-6-7-6------|
A|-------4-6-7-4-5-4-55-5-5-5-2-4-5-4------4-6-7-4-5-4-55-5-5-5-7-4-5-4------|
E|-------2-4-5-----------------------------2-4-5-----------------------------|

and now drop d
e|---------------------------------------------------------------------------|
B|---------------------------------------------------------------------------|
G|---------------------------------------------------------------------------|
D|--4-44------------------------------4-44-----------------------------------|
A|-------------4-5-4-55-5-5-5-2-4-5-4------------4-5-4-55-5-5-5-7-4-5-4------|
d|-------4-6-7-----------------------------4-6-7-----------------------------|

e|---------------------------------------------------------------------------|
B|--6-66------------------------------6-66-----------------------------------|
G|--6-66-------6-7-6-77-7-7-7-4-6-7-6-6-66-------6-7-6-77-7-7-7-9-6-7-6------|
D|--4-44-4-6-7-6-7-6-77-7-7-7-4-6-7-6-4-44-4-6-7-6-7-6-77-7-7-7-9-6-7-6------|
A|-------4-6-7-4-5-4-55-5-5-5-2-4-5-4------4-6-7-4-5-4-55-5-5-5-7-4-5-4------|
d|-------4-6-7-----------------------------4-6-7-----------------------------|

this is my first tab but its an easy song. pretty much just a 'claw' motion.
| /  slide up
| \  slide down
| h  hammer-on
| p  pull-off
| ~  vibrato
| +  harmonic
| x  Mute note
==============================================================================

            
            
Suggest correction
Creating personal tab
Creating personal tab
You can edit any tab online and save it as your Personal.

You can edit, replace or remove any tab part or add personal notes – all changes will be seen only by you.

Personal tabs can be accessed anytime from any device, even offline.
Learn more »
comments
print report bad tab
2 comments total.
0 reply
FranKLynn 20 Apr 11, 2008 07:37 PM

Pretty good, except when playing the power chords
e---
b-7-
g-7-
d-4-
a---
d---
sounds better. :)

+2 reply
JHTorkveen 10 Jun 01, 2008 02:19 AM

It should be played like this because of the note-differences. But else pretty good!

e---
b-7-
g-6-
d-4-
a---
d---

guest
Wanna post a correction for this tab? Suggest correction