Oops, an error
Loading. Please wait.

The Best Of Me bass

110 views 1 this week
no commentswrite comment
1 2 3 4 5
3 more votes to show rating
add to favorites
×
Save as Personal and add changes to this tab that will be seen only by you. Learn more ›
×
You can save this tab as Personal to edit and correct it or add notes. All changes will be seen only by you. Learn more »
launch autoscroll
font size
0
reset
guitar tuner
edit
Autoscroll
slow
fast
+/-
esc
set tempo
stop
-------------------------------------------------------------------------------
                             The Best of Me - The Used
-------------------------------------------------------------------------------

 I noticed there weren't any bass tabs for this song, so I decided to
change that. Using a live video as my resource since it's the easiest way
to hear the bass. Hope you all like it c:
     
Tabbed by: Kacey Braun 
E-mail: braun_kacey@yahoo.com

Tuning: 1/2 step down
  Intro:

F#|--------------------------------------------------------------------------|
C#|--------------------------------------------------------------------------|
G#|----------------------------------------10h12/17--------------------------|
C#|12--12--10--12--12--10--12--12--10--12------------12--12--10--12--12--10--|

F#|---------------------------------------------------------------------------|
C#|---------------------------------------------------------------------------|
G#|----------------12\8/10------------------------------------------10h12/17--|
C#|12--12--10--12-----------12--12--10--12--12--10--12--12--10--12------------|

F#|---------------------------------------------------------------------------|
C#|---------------------------------------------------------------------------|
G#|---------------------------------------------------------------------------|
C#|12--12--10--12--12--10--12\----0--0--0-0-0-00--0--0--0--12/----0--0--0-0-0-|

F#|---------------------------------------------------------------------------|
C#|---------------------------------------------------------------------------|
G#|---------------------------------------------------------------------------|
C#|00--8--8--8--11--11--11--0--0--0-0-0-00--0--0--0--12\----0--0--0-0-0-00--8-|

                      Verse 1:

F#|------------------ |-------------------------------------------------------------------------------|
C#|------------------ |-------------------------------------------------------------------------------|
G#|------------------ |-------------------------------------------------------------------------------|
C#|-8--8--11--11--11- |8*-------5*----------0*-----------8*----/12--/15----5*-------/7---/8-------0*--|


F#|--------------------------------------------|
C#|--------------------------------------------|
G#|--------------------------------------------|
C#|8*------/12--/15----5*-------/10------1--1--|



Pre-Chorus:

F#|---------------------------------------------------------------------------|
C#|---------------------------------------------------------------------------|
G#|---------------------------------------------------------------------------|
C#|--0--0--0-0-0-00--0--0--0--12-0----0--0--0-0-0-00--0*----/12\--------------|

Chorus:

F#|--------------------------------------------------------------------|
C#|--------------------------------------------------------------------|
G#|----------------------------------------------------------5-----5---|
C#|8--8--8--8----8--7--5--5--5--5----3h5--0--0--0--0*-----0-----0-----0|

F#|---------------------------------------------------------------------------|
C#|---------------------------------------------------------------------------|
G#|---------------------------------------------------------------------------|
C#|8--8--8--8----8--7--5--5--5--5----3h5--0--0--0--0*----0--0--0--0----0000---|

Verse 2:

F#|---------------------------------------------------------------------------|
C#|---------------------------------------------------------------------------|
G#|-----------------------------------------5-5--5-5-5--5-5-5--5-8-8-7-7--5-5-|
C#|--8*-------5-5--5-5-5--5-5-5--5-5-5-7-7------------------------------------|

F#|-------------------------------------------------------------------------------------|
C#|-------------------------------------------------------------------------------------|
G#|-5-5-5--5-5-5--5-10-10-8-8-----------------------------------------------------------|
C#|----------------------------8-8--8-8-8--8-8-8--8-10-10-12-12--5-5--5-5-5--5-5-5--5-5-|

(Pre-chorus)

Chorus 2:

F#|-----------------------------------------------------------------------|
C#|-----------------------------------------------------------------------|
G#|----------------------------------------------------------5-----5------|
C#|8--8--8--8----8--7--5--5--5--5----7h8--0--0--0--0*-----0-----0------0--|

F#|-------------------------------------------------------------------------|
C#|-------------------------------------------------------------------------|
G#|-------------------------------------------------------------------------|
C#|8--8--8--8----8--7--5--5--5--5----3h5--0--0--0--0*----0--0--0--0----3h5--|

F#|----------------------------------------------------------------------|
C#|----------------------------------------------------------------------|
G#|----------------------------------------------------------------------|
C#|8--8--8--8----8--7--5--5--5--5----3h5--0--0--0--0*----0--0--0--0*-----|

F#|--------------------------------------------------------------------|
C#|--------------------------------------------------------------------|
G#|--------------------------------------------------------------------|
C#|8--8--8--8----8--7--5--5--5--5----3h5--0--0--0--0*----0--0--0--0*---|

Interlude:

F#|-----------------------------------------------------------------------------------|
C#|-----------------------------------------------------------------------------------|
G#|-----------------------------------------------------------------------------------|
C#|0------------0-0------------0-0-0-----0-0-0-----0-0-0--0-0-0--0-0-0--0-0-0-0-------|

Breakdown:

F#|--------------------------------------------|(x4)
C#|--------------------------------------------|
G#|--------------------------------------------|
C#|12--12--10--12--12--10--12--12--10--12\-----|

Last Chorus:

F#|--------------------------------------------------------------|
C#|----------------------7--5------------------------------------|
G#|-------10--8---------------7---5--55--8-8-7---5--55--10-10-8-7|
C#|8--88----------5--55------------------------------------------|

F#|---------------------------------------------------------------|
C#|----------------------7--5-------------------------------------|
G#|-------10--8---------------7---5--55--8-8-7---5--55--10-10-8-7-|
C#|8--88----------5--55-------------------------------------------|

F#|---------------------------------------------------------|
C#|---------------------------------------------------------|
G#|----8-------------5--------5-5-5---5-------5-5-5---5-----|
C#|8-8-----8-8-8-5-5---5---3h5------0---0---0-------0---0---|

F#|---------------------------------------------------------|
C#|---------------------------------------------------------|
G#|----8-------------5--------5-5-5---5-------5-5-5---5-----|
C#|8-8-----8-8-8-5-5---5---3h5------0---0---0-------0---0---|


Outro:

F#|---------------------------------------------------------------------------------------------|
C#|--------------------------8h10--8------------------------------------------------------------|
G#|---------------------8h10---------10-8-------------------------------------------------------|
C#|10-10-10-10-10--8h10---------------------8-8-8-8-8--3h5-8-8-8-8-8-7-5---10-10-10-10-10-10-10-|

F#|-----------------------------------------------------------------------------------|
C#|-----------------------------------------------------------------------------------|
G#|-----------------------5---5---5---------------------------------------------------|
C#|11-11-11-11-11-11-11-0---0---0---0*------------------------------------------------|




| /  slide up
| \  slide down
| h  hammer-on
| p  pull-off
| ~  vibrato
| +  harmonic
| x  Mute note
| *  let ring
===============================================================================

            
            
Suggest correction
Creating personal tab
Creating personal tab
You can edit any tab online and save it as your Personal.

You can edit, replace or remove any tab part or add personal notes – all changes will be seen only by you.

Personal tabs can be accessed anytime from any device, even offline.
Learn more »
Give kudos to tab author, rate the tab!
1 2 3 4 5
comments
print report bad tab
guest
You may want to rate the tab now too:
select rating
Wanna post a correction for this tab? Suggest correction