Oops, an error
Loading. Please wait.
We have an official If You Wanna tab made by UG professional guitarists. Check out the tab »
×
6,107 views 6 this week
no commentswrite comment
1 2 3 4 5
x 6
add to favorites
×
Save as Personal and add changes to this tab that will be seen only by you. Learn more ›
×
You can save this tab as Personal to edit and correct it or add notes. All changes will be seen only by you. Learn more »
launch autoscroll
font size
0
reset
guitar tuner
edit
Autoscroll
slow
fast
+/-
esc
set tempo
stop
Difficulty
If You Wanna- The Vaccines tabbed by Liam O'Connell

Intro:
G:----------------------------|
D:----------------------------|
A:-----55555555555555555------| (Keep Going Until Vocals)
E:----------------------------|
               D

Verse: (Live Alternative)
                        "Well I Don't Wanna Wake Up In The..."
G:-----------------------------------------|
D:-----------------------------------------|
A:----5555555555555555--/17-17-17-17-17----|
E:-----------------------------------------|
(When Vocals Start Slide Up To A High D: 17th Fret A String Until Chord Change)

G:----------------------------------------------------------|
D:----------------------------------------------------------|
A:-------------------5555555555-----------17-17-17-17-17-17-|
E:------3----5----3-----------------------------------------|
      "That's What All The Friends...(Short Vocal Break Then Back to 17th A)

Verse AGAIN
Chorus: X2

G:-------------------------------------|
D:-------------------------------------|
A:------555555555555-------------------|
E:-------------------33333333-55555555-|
                    "It's Alright..."


Verse: x2

Bridge: (Live Alternative)

G:------------------------------|
D:------------------------------|
A:----5-------------------5-----|
E:---------3----5----3----------|
     "Alone..."


(Second Time Round) Play quicker with more notes each chord!
G:------------------------------------------------------------------|
D:------------------------------------------------------------------|
A:-----17-17-17-17-------------------------------------17-17-17-17--|
E:-----------------15-15-15-15-17-17-17-17-15-15-15-15--------------|

Chorus Until End.

            
            
Suggest correction
Creating personal tab
Creating personal tab
You can edit any tab online and save it as your Personal.

You can edit, replace or remove any tab part or add personal notes – all changes will be seen only by you.

Personal tabs can be accessed anytime from any device, even offline.
Learn more »
comments
print report bad tab
guest
Wanna post a correction for this tab? Suggest correction