Oops, an error
Loading. Please wait.

Coming Home tab

472 views 15 this week
4 commentsread comments
1 2 3 4 5
x 3
add to favorites
×
Save as Personal and add changes to this tab that will be seen only by you. Learn more ›
×
You can save this tab as Personal to edit and correct it or add notes. All changes will be seen only by you. Learn more »
launch autoscroll
font size
0
reset
how to read this tab
guitar tuner
edit
Autoscroll
slow
fast
+/-
esc
set tempo
stop
[Intro]

Guitar 1:
    G                                        Cadd9              
    V   ^ V ^ V   ^ V ^ V   ^ V ^ V  V ^ V ^ V   ^ V ^ V     ^ V ^ V   ^ V ^ V    V  V ^ 
e|--3---3-3-3-----3-3-3-3---3-3-3----3-3-3-3-----3-3-3-3-----3-3-3-3---3-3-3-3----3--3-3--| 
B|--3---3-3-3-----3-3-3-3---3-3-3----3-3-3-3-----3-3-3-3-----3-3-3-3---3-3-3-3----3--3-3--|
G|--0---0-0-0-----0-0-0-0---0-0-0----0-0-0-0-----0-0-0-0h2---2-2-0-0---0-0-0-0h2--0--0-0--|  2x
D|--0---0-0-0-0---0-0-0-0---0-0-0-0--0-0-0-0-x---------0-----0-0-0-2---2-2-2-0----0--0-0--|
A|--x---------x---------x---------x----------3---------3-----------3---------3----3-------|
E|--3---------3---------3---------3-------------------------------------------------------|

Guitar 2:
e|---------------------------------------------------------------|
B|---------------------------------------------------------------|
G|--------------2~--2-0----------------------2~--4b--2-0---0-----|
D|--0h2-5~--0h2---------4-5~-----0h2-5~--0h2-------------4---2~--|
A|---------------------------------------------------------------|
E|---------------------------------------------------------------|


[Verse 1]

    G                                        Cadd9              
    V   ^ V ^ V   ^ V ^ V   ^ V ^ V  V ^ V ^ V   ^ V ^ V     ^ V ^ V   ^ V ^ V    V  V ^ 
e|--3---3-3-3-----3-3-3-3---3-3-3----3-3-3-3-----3-3-3-3-----3-3-3-3---3-3-3-3----3--3-3--| 
B|--3---3-3-3-----3-3-3-3---3-3-3----3-3-3-3-----3-3-3-3-----3-3-3-3---3-3-3-3----3--3-3--|
G|--0---0-0-0-----0-0-0-0---0-0-0----0-0-0-0-----0-0-0-0h2---2-2-0-0---0-0-0-0h2--0--0-0--|  3x
D|--0---0-0-0-0---0-0-0-0---0-0-0-0--0-0-0-0-x---------0-----0-0-0-2---2-2-2-0----0--0-0--|
A|--x---------x---------x---------x----------3---------3-----------3---------3----3-------|
E|--3---------3---------3---------3-------------------------------------------------------|

    G                                        Cadd9              
    V   ^ V ^ V   ^ V ^ V   ^ V ^ V  V ^ V ^ V   ^ V ^ V     ^ V ^ V   ^ V ^ V   ^ V 
e|--3---3-3-3-----3-3-3-3---3-3-3----3-3-3-3-----3-3-3-3-----3-3-3-3---3-3-3-3---3-3--| 
B|--3---3-3-3-----3-3-3-3---3-3-3----3-3-3-3-----3-3-3-3-----3-3-3-3---3-3-3-3---3-3--|
G|--0---0-0-0-----0-0-0-0---0-0-0----0-0-0-0-----0-0-0-0h2---2-2-0-0---0-0-0-0---0-0--|
D|--0---0-0-0-0---0-0-0-0---0-0-0-0--0-0-0-0-x---------0-----0-0-0-2---2-2-2-2---2-2--|
A|--x---------x---------x---------x----------3---------3-----------3---------3--------|
E|--3---------3---------3---------3---------------------------------------------------|


[Pre-chorus]

e|-------------------------------------------------------------|
B|--10-----10-------12------12--------5-----5-------5-----5----|
G|-------------------------------------------------------------|
D|-------------------------------------------------------------|
A|--9----9----9-----10---10----10-----3---3---3-----3---3---3--|
E|-------------------------------------------------------------|

e|-----------------------------------------------------------|
B|--10-----10-------12------12--------5-----5-------5p3---3--|
G|------------------------------------------------------0----|
D|-----------------------------------------------------------|
A|--9----9----9-----10---10----10-----3---3---3-----3--------|
E|-----------------------------------------------------------|

e|---------------------------------------------------------------------|
B|--10-----10-------12------12--------5-----5-------5-----5-------10~--|
G|---------------------------------------------------------------------|
D|---------------------------------------------------------------------|
A|--9----9----9-----10---10----10-----3---3---3-----3---3---3-----9~---|
E|---------------------------------------------------------------------|


[Chorus]

G                                          Cadd9
Keep the car running and keep those sheets warm
                                         Em7
Cause baby there is nothing that I want more
                                                  Cadd9
Than to hold you right beside me the way I always do
                               
But I gotta tell you something,
          Am7               D                        G   Cadd9
I miss you more than you'll ever know and I'm coming home


[Verse 2]

    G                                        Cadd9              
    V   ^ V ^ V   ^ V ^ V   ^ V ^ V  V ^ V ^ V   ^ V ^ V     ^ V ^ V   ^ V ^ V    V  V ^ 
e|--3---3-3-3-----3-3-3-3---3-3-3----3-3-3-3-----3-3-3-3-----3-3-3-3---3-3-3-3----3--3-3--| 
B|--3---3-3-3-----3-3-3-3---3-3-3----3-3-3-3-----3-3-3-3-----3-3-3-3---3-3-3-3----3--3-3--|
G|--0---0-0-0-----0-0-0-0---0-0-0----0-0-0-0-----0-0-0-0h2---2-2-0-0---0-0-0-0h2--0--0-0--|
D|--0---0-0-0-0---0-0-0-0---0-0-0-0--0-0-0-0-x---------0-----0-0-0-2---2-2-2-0----0--0-0--|
A|--x---------x---------x---------x----------3---------3-----------3---------3----3-------|
E|--3---------3---------3---------3-------------------------------------------------------|

    G                                        Cadd9              
    V   ^ V ^ V   ^ V ^ V   ^ V ^ V  V ^ V ^ V   ^ V ^ V     ^ V ^ V   ^ V ^ V   ^ V 
e|--3---3-3-3-----3-3-3-3---3-3-3----3-3-3-3-----3-3-3-3-----3-3-3-3---3-3-3-3---3-3--| 
B|--3---3-3-3-----3-3-3-3---3-3-3----3-3-3-3-----3-3-3-3-----3-3-3-3---3-3-3-3---3-3--|
G|--0---0-0-0-----0-0-0-0---0-0-0----0-0-0-0-----0-0-0-0h2---2-2-0-0---0-0-0-0---0-0--|
D|--0---0-0-0-0---0-0-0-0---0-0-0-0--0-0-0-0-x---------0-----0-0-0-2---2-2-2-2---2-2--|
A|--x---------x---------x---------x----------3---------3-----------3---------3--------|
E|--3---------3---------3---------3---------------------------------------------------|


[Pre-chorus]

e|-------------------------------------------------------------|
B|--10-----10-------12------12--------5-----5-------5-----5----|
G|-------------------------------------------------------------|
D|-------------------------------------------------------------|
A|--9----9----9-----10---10----10-----3---3---3-----3---3---3--|
E|-------------------------------------------------------------|

e|-----------------------------------------------------------|
B|--10-----10-------12------12--------5-----5-------5p3---3--|
G|------------------------------------------------------0----|
D|-----------------------------------------------------------|
A|--9----9----9-----10---10----10-----3---3---3-----3--------|
E|-----------------------------------------------------------|

e|---------------------------------------------------------------------|
B|--10-----10-------12------12--------5-----5-------5-----5-------10~--|
G|---------------------------------------------------------------------|
D|---------------------------------------------------------------------|
A|--9----9----9-----10---10----10-----3---3---3-----3---3---3-----9~---|
E|---------------------------------------------------------------------|


[Chorus]

G                                          Cadd9
Keep the car running and keep those sheets warm
                                         Em7
Cause baby there is nothing that I want more
                                                  Cadd9
Than to hold you right beside me the way I always do
                               
But I gotta tell you something,
          Am7               D                       G
I miss you more than you'll ever know and I'm coming home
           Cadd9            Em7
I'm coming home, I'm coming home
           Cadd9
I'm coming home


[Bridge]

Bm                     Am7
tomorrow feels like a lifetime away
                           Bm
So why don't you stay right here?
                                   G  G/F# Cadd9
Cause my arms were made for you to lie
G/B Am7             D 
Lie in, skin to my skin


[Final chorus]

G                                          Cadd9
Keep the car running and keep those sheets warm
                                         Em7
Cause baby there is nothing that I want more
                                                  Cadd9
Than to hold you right beside me the way I always do
                               
But I gotta tell you something,
          Am7               D        Dsus4 D  Dsus4
I miss you more than you'll ever know

G                                          Cadd9
Keep the car running and keep those sheets warm
                                         Em7
Cause baby there is nothing that I want more
                                                  Cadd9
Than to hold you right beside me the way I always do
                               
But I gotta tell you something,
          Am7               D                       G
I miss you more than you'll ever know and I'm coming home
           Cadd9            Em7
I'm coming home, I'm coming home
           Cadd9  G 
I'm coming home

    Cadd9                                                           G             
    V   ^ V ^ V     ^ V ^ V   ^ V ^ V   ^ V ^ V   ^ V ^ V    V  V ^ V
e|------3-3-3-3-----3-3-3-3---3-3-3-3---3-3-3-3---3-3-3-3----3--3-3-3--| 
B|------3-3-3-3-----3-3-3-3---3-3-3-3---3-3-3-3---3-3-3-3----3--3-3-3--|
G|------0-0-0-0h2---2-2-0-0---0-0-0-0---0-0-0-0---0-0-0-0h2--0--0-0-0--|
D|--x---------0-----0-0-0-2---2-2-2-2---2-2-2-2---2-2-2-0----0--0-0-0--|
A|--3---------3-----------3---------3---------3---------3----3------x--|
E|------------------------------------------------------------------3--|


************************************

| x   Mute note
| h   Hammer-on
| p   Pull-off
| b   Bend
| ~   Vibrato
| V   Strum down
| ^   Strum up

************************************


            
            
Suggest correction
Creating personal tab
Creating personal tab
You can edit any tab online and save it as your Personal.

You can edit, replace or remove any tab part or add personal notes – all changes will be seen only by you.

Personal tabs can be accessed anytime from any device, even offline.
Learn more »
Give kudos to tab author, rate the tab!
1 2 3 4 5
comments
print report bad tab
4 comments total. Showing first comments.
0 reply
TrisVampsDrums 617 Mar 27, 2016 03:24 AM

This is a really great tab!!!
I have made my own tab of the chords, would you mind if i corrected my tab with your chords? If not thats okay but great tab very accurate

0 reply
AnnoyingXP 504 Mar 30, 2016 03:23 PM

Thank you!
And yes, you can use the chords here to correct your tab. I don't mind :)

0 reply
TrisVampsDrums 617 Mar 31, 2016 12:16 AM

Thank you! I will give you credit on my tab!
Have been trying to rate your tab 5 stars for days and it wont let me but that is what i think this tab deserves!

guest
You may want to rate the tab now too:
select rating
Wanna post a correction for this tab? Suggest correction