Oops, an error
Loading. Please wait.

Nimby tab

264 views 1 this week
no commentswrite comment
1 2 3 4 5
3 more votes to show rating
add to favorites
×
Save as Personal and add changes to this tab that will be seen only by you. Learn more ›
×
You can save this tab as Personal to edit and correct it or add notes. All changes will be seen only by you. Learn more »
launch autoscroll
font size
0
reset
how to read this tab
guitar tuner
edit
Autoscroll
slow
fast
+/-
esc
set tempo
stop
Author
Difficulty
The Vandals - NIMBY (Sweatin' To The Oldies Version)


INTRO
-----------------------------------|
-----------------------------------|
-----------------------------------|
-----1-----------------------------|
-2-4---4-2-1---2---------1-----2---|
-------------4---0---2-4---4-2-----|
G.E! Must Go!

-------------------------------------------|
-------------------------------------------|
-----------1-------------1-----------------|
-----1-------4-2-1-2---4---4-2-1------1----|
-2-4---4-2-----------------------4-2~---2--|
-------------------------------------------|


VERSE
------------------|
------------------|
--4-----------4---|
--4--6--2--4--4---|
--2--6--2--4--2---|
-----4--0--2------| x2
The city council met last night the vote was one to six
Denying access to our town by TV's "G.E. Smith"
The Mayor cited nightmares had by his daughter Eileen
She dreamed that ugly f***er's face popped out the friggin' screen

CHORUS
---------------------------|
---------------------------|
--9-----9-----9-----6------|
--9--9--9--9--9--9--6--4---|
--7--9--7--9--7--9--4--4---|
-----7-----7-----7-----2---|
And they said no, they said no way.
Not in my Back yard he cannot stay
That eyesore is a stain upon the nation
If you think he's livin' by me there's no way, Hey! Hey! Hey!

-----------------------------------|
-----------------------------------|
-----------------------------------|
-----1-----------------------------|
-2-4---4-2-1---2---------1-----2---|
-------------4---0---2-4---4-2-----|
G.E! Must Go!

------------------------------------------|
------------------------------------------|
-----------1---------------1-----3--------|
-----1-------4-2-1-2---1s2---2s4---4s9~---|
-2-4---4-2--------------------------------|
------------------------------------------|


VERSE 2
G.E. felt the setback but refused to surrender
He bought a house disguised as the guitarist of the Pretenders
But at the party that we like to throw for new homeowners
We caught him when he couldn't play the lead from "Tattooed Love Boys"


CHORUS


-----------------------------------|
-----------------------------------|
-----------------------------------|
-----1-----------------------------|
-2-4---4-2-1---2---------1-----2---|
-------------4---0---2-4---4-2-----|
G.E! Must Go!

---------------------------------------|
-2p0-2p0-4p0-5p0-7p0-9p0-11p0-12~------|
---------------------------------------|
---------------------------------------|
---------------------------------------|
---------------------------------------|

----------11-12-14-16-14-12-14-12-11-12-11------|
-11-12-14----------------------------------12---|
------------------------------------------------|
------------------------------------------------|
------------------------------------------------|
------------------------------------------------|


--------------------------------------------|
--------------------------------------------|
----------------------------------------4---|
------1-2-1-----------------------------4---|
--4-4-------4---------1-----0-0-2-4-2-0-2---|
----------------2-2-4---4-2-----------------|


--------------------------------------------|
--------------------------------------------|
----------------------------------------7---|
------1-2-1-----------------------------7---|
--4-4-------4---------1-----0-0-2-4-2-0-5---|
----------------2-2-4---4-2-----------------|


---------------|
--14b16r14-----|
-----------13--|
---------------|
---------------|
---------------|


------------------------------------|
------------------------------------|
--------------------------------4---|
-----1--------------------------4---|
-2-4---4-2-1---2---------1------2---|
-------------4---0---2-4---4-2------|
G.E! Must Go!


VERSE 3
A man has got the right to homestead anywhere he can
But that just begs the question, What exactly is a man?
Blond Frankenstein with Dutchboy hair would hardly qualify
So we must live free of this Hall & Oats reject or die


CHORUS


------------------------------------|
------------------------------------|
--------------------------------4---|
-----1--------------------------4---|
-2-4---4-2-1---2---------1------2---|
-------------4---0---2-4---4-2------|
G.E! Must Go!

            
            
Suggest correction
Creating personal tab
Creating personal tab
You can edit any tab online and save it as your Personal.

You can edit, replace or remove any tab part or add personal notes – all changes will be seen only by you.

Personal tabs can be accessed anytime from any device, even offline.
Learn more »
Give kudos to tab author, rate the tab!
1 2 3 4 5
comments
print report bad tab
guest
You may want to rate the tab now too:
select rating
Wanna post a correction for this tab? Suggest correction