Oops, an error
Loading. Please wait.

Turning Japanese intro tab

4,995 views 1 this week
3 commentsread comments
1 2 3 4 5
x 8
add to favorites
×
Save as Personal and add changes to this tab that will be seen only by you. Learn more ›
×
You can save this tab as Personal to edit and correct it or add notes. All changes will be seen only by you. Learn more »
launch autoscroll
font size
0
reset
how to read this tab
guitar tuner
edit
Autoscroll
slow
fast
+/-
esc
set tempo
stop
Author
[Intro]

e|-------10-10-10-10--8-8--5-5-8------------------| 
B|------------------------------------------------|
G|------------------------------------------------|
D|------------------------------------------------|
A|------------------------------------------------|
E|------------------------------------------------|(x2)
it's shitty but its the only one so ha!!
*if you thin it sounds better you ca bar all three high strings.(ex.)


e|-------10-10-10-10--8-8--5-5-8------------------|
B|-------10-10-10-10--8-8--5-5-8------------------|
G|-------10-10-10-10--8-8--5-5-8------------------|
D|------------------------------------------------|
A|------------------------------------------------|
E|------------------------------------------------|(x2)

            
            
Suggest correction
Creating personal tab
Creating personal tab
You can edit any tab online and save it as your Personal.

You can edit, replace or remove any tab part or add personal notes – all changes will be seen only by you.

Personal tabs can be accessed anytime from any device, even offline.
Learn more »
comments
print report bad tab
3 comments total.
0 reply
tbarrettl 271 Apr 27, 2007 07:35 PM

not bad

0 reply
kingurth 155 Jun 01, 2007 04:50 PM

A) Completely wrong, and
B) this song's not even by the Clash, it's by The Vapors.

0 reply
Subbaman 10 Jun 19, 2007 11:49 AM

not by the clash you idiot

guest
You may want to rate the tab now too:
select rating
Wanna post a correction for this tab? Suggest correction