Oops, an error
Loading. Please wait.

The Ringleader bass

594 views 3 this week
no commentswrite comment
1 2 3 4 5
x 3
add to favorites
×
Save as Personal and add changes to this tab that will be seen only by you. Learn more ›
×
You can save this tab as Personal to edit and correct it or add notes. All changes will be seen only by you. Learn more »
launch autoscroll
font size
0
reset
guitar tuner
edit
Autoscroll
slow
fast
+/-
esc
set tempo
stop
-----------------------------------------------------------------------------
			     THE RINGLEADER - The Venetia Fair
-----------------------------------------------------------------------------

Tabbed By : Samuel Parsons

Tuning: Drop C
Key: G# Minor

Only guitar and keyboards for the beginning - Come in with the first cymbal hit

Intro:
F|---------------------------------------------------------------------------|
C|---------------------------------------------------------------------------|
G|-------1---1-4-3-----2-0-1---1-4-3-----2-0---------------------------------|
C|--4------3-------4-3-------3-------4-3-----15\--1-4-3----------------------|

Verse 1:

You can basically do anything you want for the noise parts (throughout the whole song) 
but this is what it really is I think
F|------------------------4--6-13-13-6-13-13---------------------------------|
C|------------------------0--5-12-12-5-12-12---------------------------------|
G|-1--2-1--2-0-1--2-0-1---1-------------------1--111111111111-2-0-1-1--------|
C|---------------------------------------------------------------------------|

F|-6-6-7-7-------13-13-14-14-------------------------------------------------|
C|-5-5-6-6-------12-12-13-13-------------------------------------------------|
G|-----------x4---------------x4---------------------------------------------|
C|---------------------------------------------------------------------------|

Chorus:
F|---------------------------------------------------------------------------|
C|---------------------------------------------------------------------------|
G|-1-1-1-1-1-1-1-1-1-1-1-1-1-1-1-1-4-4-4-4-4-4-4-4-6-6-6-6-8-8-8-8-----------|
C|---------------------------------------------------------------------------|

F|------------------------------------------------------------------------------|
C|------------------------------------------------------------------------------|
G|-1-1-1-1-1-1-1-1-------------6-3-4-4-4-4-4-4-4-4-6-6-6-6-8-6-4-3--------------|
C|-------------------3/-8/-11/--------------------------------------------------|

1st Post Chorus:
F|---------------------------------------------------------------------------|
C|---------------------------------------------------------------------------|
G|--1-0h1--0h1---------------------------------------------------------------|
C|-----------------15\-------------------------------------------------------|

Verse 2:
F|------------------------------------3---3---3---3--------------------------|
C|---3---3---3---3---3---3----3---3-----------------4---4-5-6-7--------------|
G|-1-------1-------1--------1-------1---1---1---1-----4----------------------|
C|-----3-------3-------3--------3--------------------------------------------|

F|-------------------------------------------------6-13-13-6-13-13-----------|
C|---------------------------------666-666-6-7-8\--5-12-12-5-12-12-----------|
G|-------------------------4-4-----------------------------------------------|
C|-8-3-7-3-7-3-8-3-8-8-8-8-----4-4-------------------------------------------|

F|-6-6-7-7------13-13-14-14--------------------------------------------------|
C|-5-5-6-6------12-12-13-13--------------------------------------------------|
G|----------x2---------------x2----------------------------------------------|
C|---------------------------------------------------------------------------|

Chorus x1

2nd Post Chorus:
F|------------------------------------------------------------------------------|
C|------------------------------------------------------------------------------|
G|-1- 0h1-0-1-1---1-1---1-1---1-1-----------------------------------------------|
C|------------------------------------------------------------------------------|

Bridge :
F|---------------------------------------------------------------------------|
C|---------------------------------------------------------------------------|
G|-1--11111111111111111--1-4-3-0-1-1-4-3-----2-111111-44-33------22----------|
C|---------------------------------------4-3----------------44-33------------|

F|-6-13-13-6-6-13-6-13-13-6-6-13-6-13-13---------------------------------------------|
C|-5-12-12-5-5-12-5-12-12-5-5-12-5-12-12---now just slide up then back down----------|
G|-----------------------------------------------------------------------------------|
C|-----------------------------------------------------------------------------------|

Chorus x2

3rd Post Chorus:
F|---------------------------------------------------------------------------|
C|------------------------3333-----------------------------------------------|
G|-1-0h1-0h1111-3333-4444----------------------------------------------------|
C|---------------------------------------------------------------------------|

Outro:
F|-------------------------------------3-2-----------------------------------|
C|-3-2-1-----------3-----1-------3-4-3---------------------------------------|
G|-------4-3-1-0-4---0-3-----0-1-------------1---1-4-3-----2-0-1---1-4-3-----|
C|-------------------------4-------------------3-------4-3-------3-------4-3-|

| /  slide up
| \  slide down
| h  hammer-on
| p  pull-off
| ~  vibrato
| +  harmonic
| x  Mute note
===============================================================================

            
            
Suggest correction
Creating personal tab
Creating personal tab
You can edit any tab online and save it as your Personal.

You can edit, replace or remove any tab part or add personal notes – all changes will be seen only by you.

Personal tabs can be accessed anytime from any device, even offline.
Learn more »
Give kudos to tab author, rate the tab!
1 2 3 4 5
comments
print report bad tab
guest
You may want to rate the tab now too:
select rating
Wanna post a correction for this tab? Suggest correction