Oops, an error
Loading. Please wait.

Hawaii Five-O bass

version 1
version 1

Whole song

Interactive

11,564 views 15 this week
no commentswrite comment
1 2 3 4 5
1 last vote to show rating
add to favorites
×
Save as Personal and add changes to this tab that will be seen only by you. Learn more ›
×
You can save this tab as Personal to edit and correct it or add notes. All changes will be seen only by you. Learn more »
launch autoscroll
font size
0
reset
guitar tuner
backing track
0:00
0:00
edit
Autoscroll
slow
fast
+/-
esc
set tempo
stop
Author
HAWAII FIVE-O

The Ventures

INTRO

  t=163

                                     x x x x x x x x x x x x x x x x
G|---------------------------------|---------------------------------|
D|---------------------------------|---------------------------------|
A|---------------------------------|---------------------------------|
E|---------------------------------|---------------------------------|

   X                                             X       X       X
G|---------------------------------|---------------------------------|
D|---------------------------------|---------------------------------|
A|---------------------------------|---------------------------------|
E|---------------------------------|---------------------------------|

   X                                             X       X       X
G|---------------------------------|---------------------------------|
D|---------------------------------|---------------------------------|
A|---------------------------------|---------------------------------|
E|---------------------------------|---------------------------------|

   X                                             X       X       X
G|---------------------------------|---------------------------------|
D|---------------------------------|---------------------------------|
A|---------------------------------|---------------------------------|
E|---------------------------------|---------------------------------|

   X
G|---------------------------------|---------------------------------|
D|---------------------------------|---------------------------------|
A|---------------------------------|---------------------------------|
E|---------------------------------|---------------------------------|


VERSE


G|---------------------------------|---------------------------------|
D|---------------------------------|---------------------------------|
A|---------------------------------|---------------------------------|
E|-8-----------8---8---------------|-6-----------6---6---------------|


G|---------------------------------|---------------------------------|
D|---------------------------------|---------------------------------|
A|---------------------------------|-6-----------6---6---------------|
E|-8-----------8---8---------------|---------------------------------|


G|---------------------------------|---------------------------------|
D|---------------------------------|---------------------------------|
A|---------------------------------|---------------------------------|
E|-8-----------8---8---------------|-6-----------6---6---------------|


G|---------------------------------|---------------------------------|
D|---------------------------------|-5-----------5---5---------------|
A|-6-----------6---6---------------|---------------------------------|
E|---------------------------------|---------------------------------|


G|---------------------------------|---------------------------------|
D|---------------------------------|---------------------------------|
A|---------------------------------|---------------------------------|
E|-8-----------8---8---------------|-8-----------8---8---------------|


G|---------------------------------|---------------------------------|
D|---------------------------------|---------------------------------|
A|-8-----------8---8---------------|---------------------------------|
E|---------------------------------|-4---------------6---------------|


G|---------------------------------|---------------------------------|
D|---------------------------------|---------------------------------|
A|---------------------------------|---------------------------------|
E|-8-----------8---8---------------|-4-----------4---6---------------|


G|---------------------------------|---------------------------------|
D|---------------------------------|---------------------------------|
A|---------------------------------|---------------------------------|
E|-8-----------8---8---------------|-4-------------------------------|


G|---------------------------------|
D|---------------------------------|
A|---------------------------------|
E|---------------------------------|


VERSE


G|---------------------------------|---------------------------------|
D|---------------------------------|---------------------------------|
A|---------------------------------|---------------------------------|
E|-9-----------9---9---------------|-7-----------7---7---------------|


G|---------------------------------|---------------------------------|
D|---------------------------------|---------------------------------|
A|---------------------------------|-7-----------7---7---------------|
E|-9-----------9---9---------------|---------------------------------|


G|---------------------------------|---------------------------------|
D|---------------------------------|---------------------------------|
A|---------------------------------|---------------------------------|
E|-9-----------9---9---------------|-7-----------7---7---------------|


G|---------------------------------|---------------------------------|
D|---------------------------------|-6-----------6---6---------------|
A|-7-----------7---7---------------|---------------------------------|
E|---------------------------------|---------------------------------|


G|---------------------------------|---------------------------------|
D|---------------------------------|---------------------------------|
A|---------------------------------|---------------------------------|
E|-9-----------9---9---------------|-9-----------9---9---------------|


G|---------------------------------|---------------------------------|
D|---------------------------------|---------------------------------|
A|---------------------------------|---------------------------------|
E|-5-----------5---5---------------|-5---------------7---------------|


G|---------------------------------|---------------------------------|
D|---------------------------------|---------------------------------|
A|---------------------------------|---------------------------------|
E|-9-----------9---9---------------|-7-----------7---7---------------|


G|---------------------------------|---------------------------------|
D|---------------------------------|---------------------------------|
A|---------------------------------|---------------------------------|
E|-9-----------9---9---------------|-5-------------------------------|


G|---------------------------------|
D|---------------------------------|
A|---------------------------------|
E|---------------------------------|


VERSE


G|---------------------------------|---------------------------------|
D|---------------------------------|---------------------------------|
A|-5-----------5---5---------------|-3-----------3---3---3-----------|
E|---------5---------------5-------|---------5---------------3-------|


G|---------------------------------|---------------------------------|
D|---------------------------------|-3-----------3---3---3-----------|
A|-5-----------5---5---------------|---------3---------------3-------|
E|---------5---------------5-------|---------------------------------|


G|---------------------------------|---------------------------------|
D|---------------------------------|---------------------------------|
A|-5-----------5---5---------------|-3-----------3---3---3-----------|
E|---------5---------------5-------|---------5---------------3-------|


G|---------------------------------|---------------------------------|
D|-3-----------3---3---------------|---------------------------------|
A|---------3---------------3-------|-------------------------7-------|
E|---------------------------------|-5-------0---5---5---5-----------|


G|---------------------------------|---------------------------------|
D|---------------------------------|---------------------------------|
A|-5-----------5---5---------------|-5-----------5---5---5-----------|
E|---------5---------------5-------|---------5---------------5-------|


G|---------------------------------|---------------------------------|
D|---------------------------------|---------------------------------|
A|-1-----------1---1---------------|-1-----------1---3---------------|
E|---------1---------------1-------|---------1---------------3-------|


G|---------------------------------|---------------------------------|
D|---------------------------------|---------------------------------|
A|-5-----------5---5---------------|-------------------------8-\-----|
E|---------5---------------5-------|-8-------------------------------|


G|---------------------------------|---------------------------------|
D|---------------------------------|---------------------------------|
A|-5-----------5---5---5-----------|-3-----------3---3---3-----------|
E|---------5---------------3-------|---------3---------------5-------|


G|---------------------------------|---------------------------------|
D|---------------------------------|---------------------------------|
A|-5-----------5-------------------|---------------------------------|
E|---------5-------6---------------|---------------------------------|


G|---------------------------------|
D|---------------------------------|
A|-------------------------3-------|
E|---------------------------------|


INTERLUDE


G|---------------------------------|---------------------------------|
D|---------------------------------|---------------------------------|
A|-5-----------5---5---5-----------|-5-----------5---5---5-----------|
E|---------------------------------|---------------------------------|


G|---------------------------------|---------------------------------|
D|---------------------------------|---------------------------------|
A|-5-----------5---5---5-----------|-5-----------5---5---5-----------|
E|---------------------------------|---------------------------------|


OUTRO


G|---------------------------------|---------------------------------|
D|---------------------------------|---------------------------------|
A|---------------------------------|---------------------------------|
E|-5-----------5---5---------------|-5-----------5---5---------------|


G|---------------------------------|---------------------------------|
D|---------------------------------|---------------------------------|
A|---------------------------------|---------------------------------|
E|-5-----------5---5---------------|-5-----------5---5---------------|

                                             X       X       X
G|---------------------------------|---------------------------------|
D|---------------------------------|---------------------------------|
A|---------------------------------|---------------------------------|
E|-5-----------5---5---------------|---------6---------------8-------|

   X       X   x   X   x   X   x     X       X X X   X
G|---------------------------------|---------------------------------|
D|---------------------------------|---------------------------------|
A|---------5-------5-------5-------|-5-------5---5---5---------------|
E|---------------------------------|---------------------------------|

            
            
Suggest correction
Creating personal tab
Creating personal tab
You can edit any tab online and save it as your Personal.

You can edit, replace or remove any tab part or add personal notes – all changes will be seen only by you.

Personal tabs can be accessed anytime from any device, even offline.
Learn more »
Give kudos to tab author, rate the tab!
1 2 3 4 5
comments
print report bad tab
guest
You may want to rate the tab now too:
select rating
Wanna post a correction for this tab? Suggest correction