Oops, an error
Loading. Please wait.

Love Potion Number Nine tab

6,943 views 6 this week
1 commentread comment
1 2 3 4 5
x 3
add to favorites
×
Save as Personal and add changes to this tab that will be seen only by you. Learn more ›
×
You can save this tab as Personal to edit and correct it or add notes. All changes will be seen only by you. Learn more »
launch autoscroll
font size
0
reset
how to read this tab
guitar tuner
edit
Autoscroll
slow
fast
+/-
esc
set tempo
stop
Author
       ----------------------------------------------------------

                  THE VENTURES - LOVE POTION NUMBER 9
                      Jerry Leiber / Mike Stoller
          From KNOCK ME OUT! album. Released on February 1965.

       ----------------------------------------------------------






                                                                   G#m
  e|---------------------------------|-----------------------------4---|
  B|---------------------------------|-----------------------------4---|
  G|---------------------------------|-----------------------------4---|
  D|---------------------------------|-----------------------------6---|
  A|---------------------------------|-----------------------------6---|
  E|---------------------------------|-----------------------------4---|





     VERSE

     Am                          C#m   Dm                          G#m
  e|---------------------------------|---------------------------------|
  B|-----5---5---5---5---5---5---5---|---------------------------------|
  G|---------------------------------|-7-------7-------5-------7-------|
  D|---------------------------------|-------------7-------------------|
  A|---------------------------------|---------------------------------|
  E|---------------------------------|---------------------------------|

  e|-5---------------------------4---|-5---------------------------4---|
  B|-5---------------------------5---|-6---------------------------4---|
  G|-5---------------------------6---|-7---------------------------4---|
  D|-7---------------------------6---|-7---------------------------6---|
  A|-7---------------------------4---|-5---------------------------6---|
  E|-5-------------------------------|-----------------------------4---|




     Am                          C#m   Dm
  e|---------------------------------|---------------------------------|
  B|-----5---5---5---5---5---5---5---|---------------------------------|
  G|---------------------------------|-7-------7-------5-------7-------|
  D|---------------------------------|-------------7-------------------|
  A|---------------------------------|-----------------------------7---|
  E|---------------------------------|---------------------------------|

  e|-5---------------------------4---|-5-------------------------------|
  B|-5---------------------------5---|-6-------------------------------|
  G|-5---------------------------6---|-7-------------------------------|
  D|-7---------------------------6---|-7-------------------------------|
  A|-7---------------------------4---|-5-------------------------------|
  E|-5-------------------------------|---------------------------------|




     C                                 Am
  e|---------------------------------|---------------------------------|
  B|---------------------------------|-5-------------------------------|
  G|-----------------5-------7---5---|-----7---5-----------------------|
  D|-5-------7-----------------------|-------------7-------------------|
  A|---------------------------------|---------------------------------|
  E|---------------------------------|---------------------------------|




     Dm                                E7
  e|---------------------------------|---------------------------------|
  B|---------------------------------|---------5-----------------------|
  G|-----------------5-------7-------|-----------------7---5-----------|
  D|-7-------7-----------------------|-------------------------7---5---|
  A|---------------------------------|---------------------------------|
  E|---------------------------------|---------------------------------|




     Am
  e|---------------------------------|---------------------------------|
  B|---------------------------------|---------------------------------|
  G|---------------------------------|---------------------------------|
  D|-7-------------------------------|---------------------------------|
  A|---------------------------------|---------------------------------|
  E|---------------------------------|---------------------------------|

  e|---------------------------------|---------------------------------|
  B|---------------------------------|---------------------------------|
  G|---------------------------------|---------------------------------|
  D|---------------------------------|---------------------------------|
  A|-0-------0-------0-------0-------|-0-------0-------0---------------|
  E|---------------------------------|---------------------0---3---4---|





     VERSE
     00:19

     Am                                Dm
  e|---------------------------------|---------------------------------|
  B|---------------------------------|---------------------------------|
  G|---------------------------------|---------------------------------|
  D|---------------------------------|---------------------------------|
  A|-0---7---7---7---7---7---7---7---|-5-------5-------3-------5-------|
  E|---------------------------------|-------------5-------------------|




     Am                                Dm
  e|---------------------------------|---------------------------------|
  B|---------------------------------|---------------------------------|
  G|---------------------------------|---------------------------------|
  D|---------------------------------|---------------------------------|
  A|-----7-----7-----7----7----7-----|7\5------5-------3-------5-------|
  E|---------------------------------|-------------5-------------------|




     C                                 Am
  e|---------------------------------|---------------------------------|
  B|---------------------------------|---------------------------------|
  G|---------------------------------|---------------------------------|
  D|---------------------------------|---------------------------------|
  A|---------------------3---5---3---|5H7------5---3-------------------|
  E|-3-------5-------5---------------|-----------------5---------------|




     Dm                                E7
  e|---------------------------------|---------------------------------|
  B|---------------------------------|---------------------------------|
  G|---------------------------------|---------------------------------|
  D|---------------------------------|---------------------------------|
  A|-----------------3-------5-------|---------7-------5---3-----------|
  E|-5-------5-----------------------|-------------------------5---3---|




     Am
  e|---------------------------------|---------------------------------|
  B|---------------------------------|---------------------------------|
  G|---------------------------------|---------------------------------|
  D|---------------------------------|---------------------------------|
  A|---------------------------------|-------------------------3---4---|
  E|-5-----3-5-----3-5-----3-5-----3-|-5-----3-5-----3-5---5-----------|





     BRIDGE
     00:38

     Dm
  e|---------------------------------|---------------------------------|
  B|---------------------------------|---------------------------------|
  G|---------------------------------|---------------------------------|
  D|---------------------------------|---------------------------------|
  A|-5-----------4---5-----------4---|-5-------5-------3-----------1---|
  E|---------------------------------|-------------5-------------------|




     B
  e|---------------------------------|---------------------------------|
  B|---------------------------------|---------------------------------|
  G|---------------------------------|---------------------------------|
  D|---------------------------------|---------------------------------|
  A|-2-----------1---2-----------1---|-2-------2-------0-------2---4---|
  E|---------------------------------|-------------2-------------------|




     Dm
  e|---------------------------------|---------------------------------|
  B|---------------------------------|---------------------------------|
  G|---------------------------------|---------------------------------|
  D|---------------------------------|---------------------------------|
  A|-5-----------4---5-----------4---|-5-------5-------3-------5-------|
  E|---------------------------------|-------------5-------------------|




     E
  e|---------------------------------|---------------------------------|
  B|---------------------------------|---------------------------------|
  G|---------------------------------|---------------------7-----------|
  D|---------------------------------|---------5---7---7B9-----7---5---|
  A|-----7---7---7---7---7---7-------|-----7---------------------------|
  E|---------------------------------|---------------------------------|





     VERSE
     00:54 ....



     BRIDGE
     01:13 ....



     VERSE
     01:29 ....


     Am                                E7
  e|---------------------------------|---------------------------------|
  B|---------------------------------|---------------------------------|
  G|---------------------------------|---------------------------------|
  D|-7-----5-7-----5-7-------7-------|---------------------------------|
  A|---------------------------------|---------5-B-7---5---3-----------|
  E|---------------------------------|-------------------------5---3---|





     OUTRO
     01:48

     Am                                E7      rit...
  e|---------------------------------|---------------------------------|
  B|---------------------------------|---------------------------------|
  G|---------------------------------|---------------------------------|
  D|---------------------------------|---------------------------------|
  A|---------------------------------|---------5-B-7---5---3-----------|
  E|-5-----3-5-----3-5-------5-------|-------------------------5---3---|




     N.C.
  e|---------------------------------|---------------------------------|
  B|---------------------------------|---------------------------------|
  G|---------------------------------|---------------------------------|
  D|---------------------------------|---------------------------------|
  A|---------------------------------|---------------------------------|
  E|-5-W-----------------------------|---------------------------------|
               slow
  G|---------------------------------|---------------------------------|
  D|-----------5/7---5---------------|---------------------------------| Bass
  A|---------------------5---3-------|-0-------------------------------|
  E|---------------------------------|---------------------------------|

            
            
Suggest correction
Creating personal tab
Creating personal tab
You can edit any tab online and save it as your Personal.

You can edit, replace or remove any tab part or add personal notes – all changes will be seen only by you.

Personal tabs can be accessed anytime from any device, even offline.
Learn more »
Give kudos to tab author, rate the tab!
1 2 3 4 5
comments
print report bad tab
1 comment total.
+1 reply
balance50 10 May 19, 2015 04:03 AM

A really Great tab. Love this song. Thank you!

guest
You may want to rate the tab now too:
select rating
Wanna post a correction for this tab? Suggest correction