Oops, an error
Loading. Please wait.

I Could Get Used To This bass

version 1
version 1

Whole song

1,087 views 3 this week
no commentswrite comment
1 2 3 4 5
3 more votes to show rating
add to favorites
×
Save as Personal and add changes to this tab that will be seen only by you. Learn more ›
×
You can save this tab as Personal to edit and correct it or add notes. All changes will be seen only by you. Learn more »
launch autoscroll
font size
0
reset
guitar tuner
edit
Autoscroll
slow
fast
+/-
esc
set tempo
stop
Author
Difficulty
----------------------------------------------------------------------------
		 I COULD GET USED TO THIS – The Veronicas
----------------------------------------------------------------------------

Tabbed By: Flávia
e-mail: flaviamorenodemarco@hotmail.com

Tuning: standard

No bass

You make me breakfast in bed
When I'm mixed up in my head
You wake me with a kiss
And I could get used to this

G|-------------------------------------------------------------------------|
D|-------------------------------------------------------------------------|
A|-------------2~----4~----------4~----------------------------------------|
E|-5~----0~----------------5~----------4~----------------------------------|
You think I look the best when my hair is a mess
I can’t believe you exist
I could get used to this

G|-------------------------------------------------------------------------|
D|-------------------------------------------------------------------------|
A|------4~--2~---2~------4~----2~------------------------------------------|
E|-2~-2--------2----2~-2----5~---------------------------------------------|
Because I know you’re too good to be true
I must’ve done something good to meet you

G|-------------------------------------------------------------------------|
D|-------------------------------------------------------------------------|
A|---------------------------2-2-2-2-2-2--4-4-4-4—-2-2-2-2-----------------|
E|-5-5-5-5-5-5--0-0-0-0-0-0------------------------------------------------|
Because you wrote my name all across your hand
When I freak you understand

G|-------------------------------------------------------------------------|
D|-------------------------------------------------------------------------|
A|----------------------------------------4-4-4-4—-2-2-2-2-----------------|
E|-5-5-5-5-5-5--0-0-0-0-0-0--4-4-4-4-4-4-----------------------------------|
There’s not a thing you miss
And I could get used to this

G|-------------------------------------------------------------------------|
D|-------------------------------------------------------------------------|
A|---------------------------2-2-2-2-2-2--4-4-4-4--2-2-2-2-----------------|
E|-5-5-5-5-5-5--0-0-0-0-0-0------------------------------------------------|
I’m feeling it coming over me
With you it all comes naturally

G|-------------------------------------------------------------------------|
D|-------------------------------------------------------------------------|
A|----------------------------------------4-4-4-4—-2-2-2-2-----------------|
E|-5-5-5-5-5-5--0-0-0-0-0-0--4-4-4-4-4-4-----------------------------------|
Lost the reflex to resist
And I could get used to this


No bass
You love the songs I write

G|-------------------------------------------------------------------------|
D|-------------------------------------------------------------------------|
A|---2~-2-4----4~----------------------------------------------------------|
E|-2--------5~----4~-------------------------------------------------------|
You like the movies I like
There must be some kind of twist
I could get used to this

G|-------------------------------------------------------------------------|
D|-------------------------------------------------------------------------|
A|------4~--2~---2~------4~----2~------------------------------------------|
E|-2~-2--------2----2~-2----5~---------------------------------------------|
You kiss me, listen to me when I’m depressed
It doesn’t seem to make you like me less

G|-------------------------------------------------------------------------|
D|-------------------------------------------------------------------------|
A|---------------------------2-2-2-2-2-2--4-4-4-4—-2-2-2-2-----------------|
E|-5-5-5-5-5-5--0-0-0-0-0-0------------------------------------------------|
Because you wrote my name all across your hand
When I freak you understand

G|-------------------------------------------------------------------------|
D|-------------------------------------------------------------------------|
A|----------------------------------------4-4-4-4—-2-2-2-2-----------------|
E|-5-5-5-5-5-5--0-0-0-0-0-0--4-4-4-4-4-4-----------------------------------|
There’s not a thing you miss
And I could get used to this

G|-------------------------------------------------------------------------|
D|-------------------------------------------------------------------------|
A|---------------------------2-2-2-2-2-2--4-4-4-4--2-2-2-2-----------------|
E|-5-5-5-5-5-5--0-0-0-0-0-0------------------------------------------------|
I’m feeling it coming over me
With you it all comes naturally

G|-------------------------------------------------------------------------|
D|-------------------------------------------------------------------------|
A|----------------------------------------4-4-4-4—-2-2-2-2-----------------|
E|-5-5-5-5-5-5--0-0-0-0-0-0--4-4-4-4-4-4-----------------------------------|
Lost the reflex to resist
And I could get used to this


G|-------------------------------------------------------------------------|
D|-------------------------------------------------------------------------|
A|-4-4-4-4-4-4-------------------------------------------------------------|
E|-------------3-3-3-3-3-3-3-3-2-2-2-2-2-2-2-2-0-0-0-0-0-0-0-0-0-0-0-0-0-0-|
		    If there’s a dark side of you, I haven’t seen it

G|-------------------------------------------------------------------------|
D|-------------------------------------------------------------------------|
A|-------------------------------3-3-3-3-3-3-3-3---------------------------|
E|-3-3-3-3-3-3-3-3-2-2-2-2-2-2-2-----------------5-5-5-5-5-----------------|
Every good thing you do feels like you mean it

No bass

Cause you wrote my name all across your hand
When I freak you understand
There’s not a thing you miss
And I could get used to this

G|-------------------------------------------------------------------------|
D|-------------------------------------------------------------------------|
A|---------------------------2-2-2-2-2-2--4-4-4-4--2-2-2-2-----------------|
E|-5-5-5-5-5-5--0-0-0-0-0-0------------------------------------------------|
I’m feeling it coming over me
With you it all comes naturally

G|-------------------------------------------------------------------------|
D|-------------------------------------------------------------------------|
A|----------------------------------------4-4-4-4—-2-2-2-2-----------------|
E|-5-5-5-5-5-5--0-0-0-0-0-0--4-4-4-4-4-4-----------------------------------|
Lost the reflex to resist
And I could get used to this

G|-------------------------------------------------------------------------|
D|-------------------------------------------------------------------------|
A|------------------------4-4-4-4--2-2-2-2---------------------------------|
E|-1/9-9-4-7-4-2--2-2-2-2--------------------------------------------------|
Because you wrote my name all across your hand
When I freak you understand

G|-------------------------------------------------------------------------|
D|-------------------------------------------------------------------------|
A|----------------------------------------4-4-4-4—-2-2-2-2-----------------|
E|-5-5-5-5-5-5--0-0-0-0-0-0--4-4-4-4-4-4-----------------------------------|
There’s not a thing you miss
And I could get used to this

No bass

You make me breakfast in bed
When I’m mixed up in my head
You wake me with a kiss
I could get used to this

~ = let ring
/ = slide up

(L) Jess (L)

            
            
Suggest correction
Creating personal tab
Creating personal tab
You can edit any tab online and save it as your Personal.

You can edit, replace or remove any tab part or add personal notes – all changes will be seen only by you.

Personal tabs can be accessed anytime from any device, even offline.
Learn more »
Give kudos to tab author, rate the tab!
1 2 3 4 5
comments
print report bad tab
guest
You may want to rate the tab now too:
select rating
Wanna post a correction for this tab? Suggest correction