Oops, an error
Loading. Please wait.

Untouched chords

version 3
version 3

Whole song

Interactive

5,021 views 6 this week
no commentswrite comment
1 2 3 4 5
2 more votes to show rating
add to favorites
×
Save as Personal and add changes to this tab that will be seen only by you. Learn more ›
×
You can save this tab as Personal to edit and correct it or add notes. All changes will be seen only by you. Learn more »
launch autoscroll
font size
0
reset
transpose
0
reset
display chords
guitar tuner
edit
Autoscroll
slow
fast
+/-
esc
set tempo
stop
Strumming
There is no strumming pattern for this song yet. and get +5 IQ
Hi Again .
Here are the chords or tabs or whatever that its called for the Song
Untouched performed by The Veronicas

Beginning
riff 1
E|--------------------------------------------|
B|--------------------------------------------|
G|--------------------------------------------|
D|5-5-5-6-6--5-5-5-6-6--6-6-6-5-5--5-5-5-3-3--|  x3
A|--------------------------------------------|
E|--------------------------------------------|

While this is on background in the second time it sounds this:
riff 2
E|-------------------------------------------|
B|-------------------------------------------|
G|-------------------------------------------|
D|---5-6-5-6---5-6-5-6----5-6-5-6----5-6-5-6-|
A|--4---------3----------6----------4--------|
E|-------------------------------------------|

In the third time with both riffs on background starts something like this:

C#   F   D#  C#
And at the end of the last C# sounds this

E|--------------------------------------------|
B|--------------------------------------------|
G|--------------------------------------------|
D|6-6--5-5--3-3--1-1--------------------------|
A|---------------------5-5--------------------|
E|--------------------------------------------|

 A#m
I go ooh ooh, you go ah ah
 G#m
L-l-l-la, ah l-l-l-la
 D#m
I can la, la, la, l-la, la
        A#m
I wanna, wanna, wanna get, get, get what I want, don't stop

played with riff 2
 A#m
Give me, give me, give me what you got, got
 G#m
'Cause I can't wait, wait, wait anym-more, more, more
 D#m
Don't even talk about the consequence
 A#m
'Cause right now you're the only thing
That's making any sense to me

played with riffs 1 and 2 (no chords)
And I don't give a damn what they say, what they think, think
'Cause you're the only one who's on my mind
I'll never ever let you leave me
I'll try to stop time for ever, never wanna hear you say goodbye
Bye, bye

--Chorus--
  C#                    G#m
I feel so untouched and I want you so much
   D#                                        C#
That I just can't resist you, it's not enough to say that I miss you
  C#                     G#m
I feel so untouched right now, need you so much
 D#                                      C#
Somehow I can't forget you, I've gone crazy from the moment I met you

Riff 1
Untouched
And I need you so much

[repeat the same as the first part]
See you, breathe you, I want to be you
Ah l-l-la, ah l-l-l-la
You can take, take, t-take, take time, time
To live, live the way you gotta, gotta live your life

[played with riff 2]
Give me, give me, give me all of you, you, don't be scared
I'll see you through the lonely nights of wanting more, more, more
Don't even think about what's right or wrong or wrong or right
'Cause in the end it's only you and me

[played with riffs 1 and 2 (no chords)]
And no one else is gonna be around
To answer all the questions left behind
And you and I are meant to be so even if the world falls down today
You've still got me to hold you up, up
And I will never let you down, down

Chorus
I feel so untouched and I want you so much
That I just can't resist you, it's not enough to say that I miss you
I feel so untouched right now, need you so much
Somehow I can't forget you, I've gone crazy from the moment I met you

Riff 1
Untouched, un
Untouched
Untouched, un
Untouched

Riff 1 and chords
Untouched, un
Ah l-l-la, ah l-l-l-la
Untouched
Ah l-l-la, ah l-l-l-la

I feel so untouched and I want you so much
That I just can't resist you, it's not enough to say that I miss you
I feel so untouched right now, need you so much
Somehow I can't forget you, I've gone crazy from the moment I met you

I feel so untouched and I want you so much
That I just can't resist you, it's not enough to say that I miss you
I feel so untouched right now, need you so much
Somehow I can't forget you, I've gone crazy from the moment I met you

Riff 1
Untouched, un
Untouched
Untouched, un

and

E|--------------------------------------------|
B|--------------------------------------------|
G|--------------------------------------------|
D|6-6--5-5--3-3--1-1--------------------------|
A|---------------------5-5--------------------|
E|--------------------------------------------|

Well thatz it .., I think it's pretty accurate but its up to you.
so Enjoy it.
and if you have any questions about the tabs just mail me
at xangelmarii18x@hotmail.com

:)

            
            
Suggest correction
Creating personal tab
Creating personal tab
You can edit any tab online and save it as your Personal.

You can edit, replace or remove any tab part or add personal notes – all changes will be seen only by you.

Personal tabs can be accessed anytime from any device, even offline.
Learn more »
Give kudos to tab author, rate the tab!
1 2 3 4 5
comments
print report bad tab
guest
You may want to rate the tab now too:
select rating
Wanna post a correction for this tab? Suggest correction