Oops, an error
Loading. Please wait.

Noise Epic tab

1,037 views 1 this week
1 commentread comment
1 2 3 4 5
1 last vote to show rating
add to favorites
×
Save as Personal and add changes to this tab that will be seen only by you. Learn more ›
×
You can save this tab as Personal to edit and correct it or add notes. All changes will be seen only by you. Learn more »
launch autoscroll
font size
0
reset
how to read this tab
guitar tuner
edit
Autoscroll
slow
fast
+/-
esc
set tempo
stop
The Verve- Noise Epic
Forth

Intro e Verse(Riff):

e---------------------------------------|
B---------------------------------------|
G---------------------------------------|
D---------------------------------------|
A---------------------------------------|
E--0---0--0--12--0--10--0--10--—10--12--|

Chorus:


e-------------------|
B-------------------|
G-------------------|
D--9---9----7---7---|
A--9---9----7---7---|
E--7---7----5---5---|

Saluti e COME ON!!!!!

            
            
Suggest correction
Creating personal tab
Creating personal tab
You can edit any tab online and save it as your Personal.

You can edit, replace or remove any tab part or add personal notes – all changes will be seen only by you.

Personal tabs can be accessed anytime from any device, even offline.
Learn more »
Give kudos to tab author, rate the tab!
1 2 3 4 5
comments
print report bad tab
1 comment total.
0 reply
stevejjobbs 117 Feb 05, 2015 07:20 AM

Tab incomplete. Clearly wrong. Completely incorrect, cannot be called a tab at all if it has incomplete parts. It should be deleted or corrected. Also, this strange comment at the end.

guest
Wanna post a correction for this tab? Suggest correction