Oops, an error
Loading. Please wait.

Autumn Shade Ii chords

19,417 views 21 this week
1 commentread comment
1 2 3 4 5
x 5
add to favorites
×
Save as Personal and add changes to this tab that will be seen only by you. Learn more ›
×
You can save this tab as Personal to edit and correct it or add notes. All changes will be seen only by you. Learn more »
launch autoscroll
font size
0
reset
transpose
0
reset
display chords
guitar tuner
edit
Autoscroll
slow
fast
+/-
esc
set tempo
stop
Author
Strumming
There is no strumming pattern for this song yet. and get +5 IQ
[Intro]
   C       G       Em       A
e|-------------3-(3)---0-------0------|   
B|-----1--0---------------0h2-----0h1-| 
G|-----0-----------------------2------| 
D|---2—--2-----0-------2-----2---2----|
A|-3---------2---2---2---2--0---------|
E|---------3-------0------------------|

[Verse]
C               G           Em         A     C   
   Look through me because I am a transparent
         G             Em        A       C
Ought to know me but why even know yourself
       G            Em         A        C
I'm beginning to need all that I can't have
       G             Em             A      C G  
I'm succeeding to speak like I'm fucking mad

[Chorus]
Em                      C G
Looking at the Autumn Shade
You are white and I am grey
Em                      C G     Em   
Looking at the Autumn Shade, oh yeah

[Verse]
Look through me because I am a transparent
Ought to know me but why even know yourself
I'm beginning to need all that I can't have
I'm succeeding to speak like I'm fucking mad

[Chorus]
Em                      C G
Looking at the Autumn Shade
You are white and I am grey
Em                      C G     Em   
Looking at the Autumn Shade, oh yeah

[Bridge]
C G Em A C G Em A
C          G       Em         A
Oooooh ooh ooh woo-oooooh ooh ooooh
Oooooh ooh ooh woo-oooooh ooh ooooh
Oooooh ooh ooh woo-oooooh ooh ooooh
              La   lala   la     la la
Oooooh ooh ooh woo-oooooh oooooh wooooooooooh

[Solo]
e|------------------------------------------------------|
B|------------------------------------------------------|
G|--9-9-9-9/12br11-9~~~~-7------------------------------|
D|-------------------------10-9-7-9~-12~-9~~-10~~-9~~~~-|
A|------------------------------------------------------|
E|------------------------------------------------------|

e|------------------------------------------------------|
B|------------------------------------------------------|
G|-9-9-9-9/12/14~-14-12-9~~~~-----9~~~~~~~--------------|
D|----------------------------7br-----------------------|
A|------------------------------------------------------|
E|------------------------------------------------------|


************************************

| (n)  Ghost note
| h    Hammer-on
| br   Bend release
| /    Slide up
| ~    Vibrato

************************************

            
            
Suggest correction
Creating personal tab
Creating personal tab
You can edit any tab online and save it as your Personal.

You can edit, replace or remove any tab part or add personal notes – all changes will be seen only by you.

Personal tabs can be accessed anytime from any device, even offline.
Learn more »
comments
print report bad tab
1 comment total.
+1 reply
Alina37 112 Feb 16, 2009 05:45 PM

Em             G       C    G
Looking at the Autumn Shade
Em G C G
You are white and I am grey
Em G C G Em
Looking at the Autumn Shade, oh yeah

guest
You may want to rate the tab now too:
select rating
Wanna post a correction for this tab? Suggest correction