Oops, an error
Loading. Please wait.
We have an official Get Out tab made by UG professional guitarists. Check out the tab »
×
1,548 views 3 this week
1 commentread comment
1 2 3 4 5
2 more votes to show rating
add to favorites
×
Save as Personal and add changes to this tab that will be seen only by you. Learn more ›
×
You can save this tab as Personal to edit and correct it or add notes. All changes will be seen only by you. Learn more »
launch autoscroll
font size
0
reset
guitar tuner
edit
Autoscroll
slow
fast
+/-
esc
set tempo
stop
Author
++++++++++++++++++++++
| The Vines- Get Out |
++++++++++++++++++++++


"I'll keep on moving with the sound..."

Tuning: EADG


Intro
1.
G|---------------------------------------|
D|---------------------------------------|
A|-44444440-----------44444440-----------|
E|----------2222/5555----------2222/5555-|

Verse
"Find a way out..."
2.
G|----------------------------------------------------------------------------|
D|----------------------------------------------------------------------------|
A|-44444440-----------44444440-----------44444440-----------------------------|
E|----------2222/5555----------2222/5555----------2222/5555-00000000-22222222-|

Chorus
"C'mon get out, outta here..."
3.
G|----------------------------------------------------------------------------|
D|----------------------------------------------------------------------------|
A|-44444440-----------44444440-----------44444440-----------------------------|
E|----------2222/5555----------2222/5555----------2222/5555-00000000-22222222-|

Verse
"Find a home now..."
4.
G|----------------------------------------------------------------------------|
D|----------------------------------------------------------------------------|
A|-44444440-----------44444440-----------44444440-----------------------------|
E|----------2222/5555----------2222/5555----------2222/5555-00000000-22222222-|

Chorus
"C'mon get out, outta here..."
5.
G|----------------------------------------------------------------------------|
D|----------------------------------------------------------------------------|
A|-44444440-----------44444440-----------44444440-----------------------------|
E|----------2222/5555----------2222/5555----------2222/5555-00000000-22222222-|

Bridge
"I know you're thinking 'bout yourself..."
6.
G|------------------------------2h4p2--------------------------------------2h4p2---------|
D|----------22222222----------4-------4-2--------------22222222----------4-------4-2-----|
A|-00000000-------------------------------4-2-00000000-------------------------------4-2-|
E|-------------------22222222-----------------------------------22222222-----------------|

"I'll keep on moving with the sound..."
7.
G|------------------------------2h4p2-----------------------------------------------|
D|----------22222222----------4-------4-2--------------22222222---------------------|
A|-00000000-------------------------------4-2-00000000------------------------------|
E|-------------------22222222-----------------------------------2~------2x-2x-2x-2x-|

8.
G|----------------------------------------------------------------------------|
D|----------------------------------------------------------------------------|
A|-44444440-----------44444440-----------44444440-----------------------------|
E|----------2222/5555----------2222/5555----------2222/5555-00000000-22222222-|

Chorus
"C'mon get out, outta here..."
9.
G|----------------------------------------------------------------------------|
D|----------------------------------------------------------------------------|
A|-44444440-----------44444440-----------44444440-----------------------------|--x2
E|----------2222/5555----------2222/5555----------2222/5555-00000000-22222222-|

Outro
"Get out..."
10.
G|-------------------|
D|-------------------|
A|-44~---------------|
E|-------------------|


Lyrics:


Find a way out
Get what you can
Keep your head now
Listen when I sing

C'mon get out outta here
C'mon get out over me
C'mon get out
God don't need ya

Find a home now 
See where you get 
Sleep alone now 
Or makin a friend

I know you're thinking 'bout yourself (About yourself)
Why would you think of no one else? (Of no one else)
I'll keep on movin with the sound (Vin with the sound)
And sure do hope you come around



+++++++++++++++++++++++++++++++++
| RaiLeff                       |
| Underground__Dora@Hotmail.Com |
+++++++++++++++++++++++++++++++++

            
            
Suggest correction
Creating personal tab
Creating personal tab
You can edit any tab online and save it as your Personal.

You can edit, replace or remove any tab part or add personal notes – all changes will be seen only by you.

Personal tabs can be accessed anytime from any device, even offline.
Learn more »
Give kudos to tab author, rate the tab!
1 2 3 4 5
comments
print report bad tab
1 comment total.
0 reply
Streetking07 118 Dec 09, 2008 10:42 AM

Nice tab

guest
You may want to rate the tab now too:
select rating
Wanna post a correction for this tab? Suggest correction