Oops, an error
Loading. Please wait.

Lisbon tab

118 views 3 this week
no commentswrite comment
1 2 3 4 5
1 last vote to show rating
add to favorites
×
Save as Personal and add changes to this tab that will be seen only by you. Learn more ›
×
You can save this tab as Personal to edit and correct it or add notes. All changes will be seen only by you. Learn more »
launch autoscroll
font size
0
reset
how to read this tab
guitar tuner
edit
Autoscroll
slow
fast
+/-
esc
set tempo
stop
[Intro]
e|------------------------|
B|----9---9---9---9-------|
G|----9---9---9---9-------|
D|----9---9---9---9-------| (x4)
A|----7---7---7---7-------|
E|------------------------|

[Verse 1]
e|--------------------|--------------------|
B|----9---9---9---9---|---8---8---8---8----|
G|----9---9---9---9---|---9---9---9---9----|
D|----9---9---9---9---|---9---9---9---9----|
A|----7---7---7---7---|---7---7---7---7----|
E|--------------------|--------------------|
                                             (x4)
e|--------------------|--------------------|
B|----7---7---2---2---|---7---7---2---2----|
G|----8---8---3---3---|---8---8---3---3----|
D|----9---9---4---4---|---9---9---4---4----|
A|----9---9---4---4---|---9---9---4---4----|
E|--------------------|--------------------|

[Pre-Chorus 1]
e|--------------------|----------------------|
B|----2-------2---4---|---5-------5---5------|
G|----3-------3---3---|---3-------3---3------|
D|----4-------4---4---|---4-------4---4------|
A|----4-------4-------|----------------------|
E|--------------------|----------------------|
                                               (x2)
e|--------------------|---2-------2---2------|
B|---4--4--4--4-/-5---|---2-------2---2------|
G|---4--4--4--4-/-6---|---3-------3---3------|
D|---4--4--4--4-/-6---|---4-------4---4------|
A|---2--2--2--2-/-4---|---4-------4---4------|
E|--------------------|---2-------2---2------|

[Verse 2]
e|------------7---7---|---7---7---7---7----|
B|----9---9---9---9---|---8---8---8---8----|
G|----9---9---9---9---|---9---9---9---9----|
D|----9---9---9---9---|---9---9---9---9----|
A|----7---7---7---7---|---7---7---7---7----|
E|--------------------|--------------------|
                                             (x4)
e|--------------------|--------------------|
B|----7---7---2---2---|---7---7---2---2----|
G|----8---8---3---3---|---8---8---3---3----|
D|----9---9---4---4---|---9---9---4---4----|
A|----9---9---4---4---|---9---9---4---4----|
E|--------------------|--------------------|

[Pre-Chorus 2]
e|--------------------|----------------------|
B|----2-------2---4---|---5-------5---5------|
G|----3-------3---3---|---3-------3---3------|
D|----4-------4---4---|---4-------4---4------|
A|----4-------4-------|----------------------|
E|--------------------|----------------------|
                                               (x3)
e|--------------------|---9-------9---9------|
B|---7--7--7--7-/-9---|---11------11--11-----|
G|---8--8--8--8-/-9---|---11------11--11-----|
D|---9--9--9--9-/-11--|---11------11--11-----|
A|---9--9--9--9-/-11--|---9-------9---9------|
E|--------------------|----------------------|

e|--------------------|----------------------|
B|----2-------2---4---|---5-------5---5------|
G|----3-------3---3---|---3-------3---3------|
D|----4-------4---4---|---4-------4---4------|
A|----4-------4-------|----------------------|
E|--------------------|----------------------|
                                               
e|--------------------|---------------------|
B|----7-----7\5---5---|---5/4---4---4/2--2--|
G|----8---------------|---------------------|
D|----9---------------|---------------------|
A|----9---------------|---------------------|
E|--------------------|---------------------|

[Chorus 1]
e|--------------------|---11/---------------|---11/---------------|
B|----7/--------------|---12/---------------|---12/---------------|
G|----8/--------------|---11/---------------|---11/---------------|
D|----9/--------------|---------------------|---------------------|
A|----9/--------------|---------------------|---------------------|
E|--------------------|---------------------|---------------------|

e|---11----11-11-11---|----9/---------------|---9--9---7--7--6--6-|   
B|---12----12-12-12---|---11/---------------|---11-11-------------|  
G|---11----11-11-11---|---11/---------------|---11-11-------------|
D|--------------------|---------------------|---------------------|   (x3)
A|--------------------|---------------------|---------------------|
E|--------------------|---------------------|---------------------|

e|----9/--------------|---9---9--11-12-11-9-|
B|---11/--------------|---11--11-11-11-11---|
G|---11/--------------|---11--11-11-11-11---|
D|--------------------|---------------------|
A|--------------------|---------------------|
E|--------------------|---------------------|

[Bridge]
e|--------------------|---------------------|
B|----9/-------0------|---8/----------0-----|
G|----9/--------------|---9/----------------|
D|----9/--------------|---9/----------------|
A|----7/--------------|---7/----------------|
E|--------------------|---------------------|
                                             (x2)
e|--------------------|--------------------|
B|----7---7---2---2---|---7---7---2---2----|
G|----8---8---3---3---|---8---8---3---3----|
D|----9---9---4---4---|---9---9---4---4----|
A|----9---9---4---4---|---9---9---4---4----|
E|--------------------|--------------------|

[Verse 3]
e|------------7---7---|---7---7---7---7----|
B|----9---9---9---9---|---8---8---8---8----|
G|----9---9---9---9---|---9---9---9---9----|
D|----9---9---9---9---|---9---9---9---9----|
A|----7---7---7---7---|---7---7---7---7----|
E|--------------------|--------------------|
                                             (x4)
e|--------------------|--------------------|
B|----7---7---2---2---|---7---7---2---2----|
G|----8---8---3---3---|---8---8---3---3----|
D|----9---9---4---4---|---9---9---4---4----|
A|----9---9---4---4---|---9---9---4---4----|
E|--------------------|--------------------|

[Pre-Chorus 3]
e|--------------------|----------------------|
B|----2-------2---4---|---5-------5---5------|
G|----3-------3---3---|---3-------3---3------|
D|----4-------4---4---|---4-------4---4------|
A|----4-------4-------|----------------------|
E|--------------------|----------------------|
                                               (x3)
e|--------------------|---9-------9---9------|
B|---7--7--7--7-/-9---|---11------11--11-----|
G|---8--8--8--8-/-9---|---11------11--11-----|
D|---9--9--9--9-/-11--|---11------11--11-----|
A|---9--9--9--9-/-11--|---9-------9---9------|
E|--------------------|----------------------|

e|--------------------|----------------------|
B|----2-------2---4---|---5-------5---5------|
G|----3-------3---3---|---3-------3---3------|
D|----4-------4---4---|---4-------4---4------|
A|----4-------4-------|----------------------|
E|--------------------|----------------------|
                                               
e|--------------------|---------------------|
B|----7-----7\5---5---|---5/4---4---4/2-----|
G|----8---------------|---------------------|
D|----9---------------|---------------------|
A|----9---------------|---------------------|
E|--------------------|---------------------|

[Chorus 2]
e|--------------------|---11/-------2-------|---11/--------2------|
B|----7/-------4------|---12/-------4-------|---12/--------4------|
G|----8/-------4------|---11/-------4-------|---11/--------4------|
D|----9/-------4------|---------------------|---------------------|
A|----9/--------------|---------------------|---------------------|
E|--------------------|---------------------|---------------------|

e|---11----11-11-11---|----9/------2--------|---9--9---7--7--6--6-|   
B|---12----12-12-12---|---11/------2--------|---11-11-------------|  
G|---11----11-11-11---|---11/------3--------|---11-11-------------|
D|--------------------|---------------------|---------------------|   (x2)
A|--------------------|---------------------|---------------------|
E|--------------------|---------------------|---------------------|

e|----9/------2-------|---9---9--11-12-11-9-|
B|---11/------2-------|---11--11-11-11-11---|
G|---11/------3-------|---11--11-11-11-11---|
D|--------------------|---------------------|
A|--------------------|---------------------|
E|--------------------|---------------------|

[Outro]
e|------------------------|------------------------|
B|------7-----7-------7---|------7-----7-------7---|
G|---8-----8-----8~-----8-|---8-----8-----8~-----8-| (x2)
D|------------------------|------------------------| 
A|------------------------|------------------------|
E|------------------------|------------------------|

e|------------------------|------------------------|
B|------2-----2-------2---|------2-----2-------2---|
G|---3-----3-----3~-----3-|---3-----3-----3~-----3-| (x2)
D|------------------------|------------------------|
A|------------------------|------------------------|
E|------------------------|------------------------|

e|-------------|
B|---7~--------|
G|---8~--------|
D|---9~--------|
A|---9~--------|
E|-------------|


************************************

 
| /   Slide up
| \   Slide down
| ~   Vibrato


************************************

            
            
Suggest correction
Creating personal tab
Creating personal tab
You can edit any tab online and save it as your Personal.

You can edit, replace or remove any tab part or add personal notes – all changes will be seen only by you.

Personal tabs can be accessed anytime from any device, even offline.
Learn more »
Give kudos to tab author, rate the tab!
1 2 3 4 5
comments
print report bad tab
guest
You may want to rate the tab now too:
select rating
Wanna post a correction for this tab? Suggest correction