Oops, an error
Loading. Please wait.

Because tab

22 views 1 this week
no commentswrite comment
1 2 3 4 5
3 more votes to show rating
add to favorites
×
Save as Personal and add changes to this tab that will be seen only by you. Learn more ›
×
You can save this tab as Personal to edit and correct it or add notes. All changes will be seen only by you. Learn more »
launch autoscroll
font size
0
reset
how to read this tab
guitar tuner
edit
Autoscroll
slow
fast
+/-
esc
set tempo
stop
Wannadies - Because
Tuning: standard.
No Capo.

[Intro]

         G     F#     F
e|-------3------2-----1----------------------------|
B|-------3------2-----1----------------------------|
G|-------4------3-----2----------------------------|
D|-------5------4-----3----------------------------|
A|-------5------4-----3----------------------------|
E|-------3------2-----1----------------------------|
I'm counting in, the band begin . . .


[Verse End]

 guitars w/heavy distortion
e|-------------------------------------------------|
B|-------------------------------------------------|
G|----------5--5--5--5-----4--4--4--7--7--7--7-----|
D|-5--5--5--5--5--5--5-----4--4--4--7--7--7--7-----|
A|-5--5--5--3--3--3--3-----2--2--2--5--5--5--5-----|
E|-3--3--3-----------------------------------------|
   because, because,   and all      because    I say


e|-------------------------------------------------|
B|-------------------------------------------------|
G|----------5--5--5--5-----4--4--4--7--7--7--7-----|
D|-5--5--5--5--5--5--5-----4--4--4--7--7--7--7-----|
A|-5--5--5--3--3--3--3-----2--2--2--5--5--5--5-----|
E|-3--3--3-----------------------------------------|
   so!


e|-------------------------------------------------|
B|-------------------------------------------------|
G|----------5--5--5--5-----4--4--4--7--7--7--7-----|
D|-5--5--5--5--5--5--5-----4--4--4--7--7--7--7-----|
A|-5--5--5--3--3--3--3-----2--2--2--5--5--5--5-----|
E|-3--3--3-----------------------------------------|


[Verse]


e|-------------------------------------------------|
B|-------------------------------------------------|
G|-----------------5--5-----------4--4--4--7--7----|
D|--------5--5--5--5--5-----------4--4--4--7--7----|
A|--------5--5--5--3--3-----------2--2--2--5--5----|
E|--------3--3--3----------------------------------|
  it's fun                  to be


e|-------------------------------------------------|
B|-------------------------------------------------|
G|-----------------5--5-----------4--4--4--7--7----|
D|--------5--5--5--5--5-----------4--4--4--7--7----|
A|--------5--5--5--3--3-----------2--2--2--5--5----|
E|--------3--3--3----------------------------------|
  around                 to tease


e|-------------------------------------------------|
B|-------------------------------------------------|
G|----------5--5--5--5-----4--4--4--7--7--7--7-----|
D|-5--5--5--5--5--5--5-----4--4--4--7--7--7--7-----|
A|-5--5--5--3--3--3--3-----2--2--2--5--5--5--5-----|
E|-3--3--3-----------------------------------------|
  you all   because        and all because I want to


e|-------------------------------------------------|
B|-------------------------------------------------|
G|----------5--5--5--5-----4--4--4--7--7--7--7-----|
D|-5--5--5--5--5--5--5-----4--4--4--7--7--7--7-----|
A|-5--5--5--3--3--3--3-----2--2--2--5--5--5--5-----|
E|-3--3--3-----------------------------------------|


e|-------------------------------------------------|
B|-------------------------------------------------|
G|-----------------5--5-----------4--4--4--7--7----|
D|--------5--5--5--5--5-----------4--4--4--7--7----|
A|--------5--5--5--3--3-----------2--2--2--5--5----|
E|--------3--3--3----------------------------------|
  i'm bold               and brave


e|-------------------------------------------------|
B|-------------------------------------------------|
G|-----------------5--5-----------4--4--4--7--7----|
D|--------5--5--5--5--5-----------4--4--4--7--7----|
A|--------5--5--5--3--3-----------2--2--2--5--5----|
E|--------3--3--3----------------------------------|
   i go                 my own ways


e|-------------------------------------------------|
B|-------------------------------------------------|
G|----------5--5--5--5-----4--4--4--7--7--7--7-----|
D|-5--5--5--5--5--5--5-----4--4--4--7--7--7--7-----|
A|-5--5--5--3--3--3--3-----2--2--2--5--5--5--5-----|
E|-3--3--3-----------------------------------------|
  because,  because,        and all because


[Chorus]


e|-------------------------------------------------|
B|-------------------------------------------------|
G|-8--8--8--8--8--8--8-----------------------------|
D|-8--8--8--8--8--8--8--7/8-8\-7/8-----------------|
A|-6--6--6--6--6--6--6--7/8-8\-7/8-----------------|
E|----------------------5/6-6\-5/6-----------------|
   i  drink           and s-moke


e|-------------------------------------------------|
B|-------------------------------------------------|
G|-8--8--8--8--8--8--8-----------------------------|
D|-8--8--8--8--8--8--8--7/8-8\-7/8-----------------|
A|-6--6--6--6--6--6--6--7/8-8\-7/8-----------------|
E|----------------------5/6-6\-5/6-----------------|
   until              i choke


e|-------------------------------------------------|
B|-------------------------------------------------|
G|-8--8--8--8--8--8--8--10-10-10-10-10-10-10-------|
D|-8--8--8--8--8--8--8--10-10-10-10-10-10-10-------|
A|-6--6--6--6--6--6--6--8--8--8--8--8--8--8--------|
E|-------------------------------------------------|
   until             i'm broke       because i


e|-------------------------------------------------|
B|-------------------------------------------------|
G|----------5--5--5--5-----4--4--4--7--7--7--7-----|
D|-5--5--5--5--5--5--5-----4--4--4--7--7--7--7-----|
A|-5--5--5--3--3--3--3-----2--2--2--5--5--5--5-----|
E|-3--3--3-----------------------------------------|
   want to!


e|-------------------------------------------------|
B|-------------------------------------------------|
G|----------5--5--5--5-----4--4--4--7--7--7--7-----|
D|-5--5--5--5--5--5--5-----4--4--4--7--7--7--7-----|
A|-5--5--5--3--3--3--3-----2--2--2--5--5--5--5-----|
E|-3--3--3-----------------------------------------|


[Verse]


e|-------------------------------------------------|
B|-------------------------------------------------|
G|-----------------5--5-----------4--4--4--7--7----|
D|--------5--5--5--5--5-----------4--4--4--7--7----|
A|--------5--5--5--3--3-----------2--2--2--5--5----|
E|--------3--3--3----------------------------------|
  i want                  to show


e|-------------------------------------------------|
B|-------------------------------------------------|
G|-----------------5--5-----------4--4--4--7--7----|
D|--------5--5--5--5--5-----------4--4--4--7--7----|
A|--------5--5--5--3--3-----------2--2--2--5--5----|
E|--------3--3--3----------------------------------|
  the world           that i know


e|-------------------------------------------------|
B|-------------------------------------------------|
G|----------5--5--5--5-----4--4--4--7--7--7--7-----|
D|-5--5--5--5--5--5--5-----4--4--4--7--7--7--7-----|
A|-5--5--5--3--3--3--3-----2--2--2--5--5--5--5-----|
E|-3--3--3-----------------------------------------|
  just how  to cause       to cause re - al



e|-------------------------------------------------|
B|-------------------------------------------------|
G|----------5--5--5--5-----4--4--4--7--7--7--7-----|
D|-5--5--5--5--5--5--5-----4--4--4--7--7--7--7-----|
A|-5--5--5--3--3--3--3-----2--2--2--5--5--5--5-----|
E|-3--3--3-----------------------------------------|
   chaos!



e|-------------------------------------------------|
B|-------------------------------------------------|
G|-----------------5--5-----------4--4--4--7--7----|
D|--------5--5--5--5--5-----------4--4--4--7--7----|
A|--------5--5--5--3--3-----------2--2--2--5--5----|
E|--------3--3--3----------------------------------|
  i shake                and spin


e|-------------------------------------------------|
B|-------------------------------------------------|
G|-----------------5--5-----------4--4--4--7--7----|
D|--------5--5--5--5--5-----------4--4--4--7--7----|
A|--------5--5--5--3--3-----------2--2--2--5--5----|
E|--------3--3--3----------------------------------|
  i am     (i am)         the king   (yes)


e|-------------------------------------------------|
B|-------------------------------------------------|
G|----------5--5--5--5-----4--4--4--7--7--7--7-----|
D|-5--5--5--5--5--5--5-----4--4--4--7--7--7--7-----|
A|-5--5--5--3--3--3--3-----2--2--2--5--5--5--5-----|
E|-3--3--3-----------------------------------------|
  because because          and all because


[Chorus]


e|-------------------------------------------------|
B|-------------------------------------------------|
G|-8--8--8--8--8--8--8-----------------------------|
D|-8--8--8--8--8--8--8--7/8-8\-7/8-----------------|
A|-6--6--6--6--6--6--6--7/8-8\-7/8-----------------|
E|----------------------5/6-6\-5/6-----------------|
   i  drink           and s-moke


e|-------------------------------------------------|
B|-------------------------------------------------|
G|-8--8--8--8--8--8--8-----------------------------|
D|-8--8--8--8--8--8--8--7/8-8\-7/8-----------------|
A|-6--6--6--6--6--6--6--7/8-8\-7/8-----------------|
E|----------------------5/6-6\-5/6-----------------|
   until              i choke


e|-------------------------------------------------|
B|-------------------------------------------------|
G|-8--8--8--8--8--8--8-----------------------------|
D|-8--8--8--8--8--8--8--7/8-8\-7/8-----------------|
A|-6--6--6--6--6--6--6--7/8-8\-7/8-----------------|
E|----------------------5/6-6\-5/6-----------------|
   until             i'm broke               and


e|-------------------------------------------------|
B|-------------------------------------------------|
G|-5--5--5--5--5--5--5--7--7--7--7--7--7--7--7-----|
D|-5--5--5--5--5--5--5--7--7--7--7--7--7--7--7-----|
A|-3--3--3--3--3--3--3--5--5--5--5--5--5--5--5-----|
E|-------------------------------------------------|
  laugh at every stupid joke!           because i


e|-------------------------------------------------|
B|-------------------------------------------------|
G|----------5--5--5--5-----4--4--4--7--7--7--7-----|
D|-5--5--5--5--5--5--5-----4--4--4--7--7--7--7-----|
A|-5--5--5--3--3--3--3-----2--2--2--5--5--5--5-----|
E|-3--3--3-----------------------------------------|
   want to!


e|-------------------------------------------------|
B|-------------------------------------------------|
G|----------5--5--5--5-----4--4--4--7--7--7--7-----|
D|-5--5--5--5--5--5--5-----4--4--4--7--7--7--7-----|
A|-5--5--5--3--3--3--3-----2--2--2--5--5--5--5-----|
E|-3--3--3-----------------------------------------|


[Bridge]

(2 guitars, or just play guitar 2)

    guitar 1
e|-------------------------------------------------|
B|-------------------------------------------------|
G|-----------------5--5-----------4--4--4--7--7----|
D|--------5--5--5--5--5-----------4--4--4--7--7----|
A|--------5--5--5--3--3-----------2--2--2--5--5----|
E|--------3--3--3----------------------------------|


    guitar 2
e|-------------------------------------------------|
B|-------------------------------------------------|
G|------------------------9\4----------------------|
D|---12\5------------------------------------------|
A|------------------------7\2----------------------|
E|---10\3------------------------------------------|


    guitar 1
e|-------------------------------------------------|
B|-------------------------------------------------|
G|-----------------5--5-----------4--4--4--7--7----|
D|--------5--5--5--5--5-----------4--4--4--7--7----|
A|--------5--5--5--3--3-----------2--2--2--5--5----|
E|--------3--3--3----------------------------------|


    guitar 2                                                 if playing an acoustic (less frets)
e|-------------------------------------------------|     e|-------------------------------------------------|
B|-------------------------------------------------|     B|----8\3------------12\8--------------------------|
G|---12\7----------------16\12---------------------|     G|-------------------------------------------------|
D|-------------------------------------------------|     D|----5\0-------------9\5--------------------------|
A|---10\5----------------14\10---------------------|     A|-------------------------------------------------|
E|-------------------------------------------------|     E|-------------------------------------------------|


Recorder Bit

e|-------------------------------------------------|
B|-------------------------------------------------|
G|-------------------------------------------------|   
D|-------------------------------------------------|
A|---5--5--5--------2--2--2------------------------|
E|------------3--3-----------0--0------------------|(x3)

then:
e|-------------------------------------------------|
B|-------------------------------------------------|
G|------------------5--5--5--5--5--5--5--5---------|
D|------------------5--5--5--5--5--5--5--5---------|
A|---5--5--5--------2--2--2--2--2--2--2--2---------|
E|------------3--3---------------------------------|
                             i -

e|-------------------------------------------------|
B|-------------------------------------------------|
G|-8--8--8--8--8--8--8-----------------------------|
D|-8--8--8--8--8--8--8--7/8-8\-7/8-----------------|
A|-6--6--6--6--6--6--6--7/8-8\-7/8-----------------|
E|----------------------5/6-6\-5/6-----------------|
   drink             and s-moke


e|-------------------------------------------------|
B|-------------------------------------------------|
G|-8--8--8--8--8--8--8-----------------------------|
D|-8--8--8--8--8--8--8--7/8-8\-7/8-----------------|
A|-6--6--6--6--6--6--6--7/8-8\-7/8-----------------|
E|----------------------5/6-6\-5/6-----------------|
   until              i choke


e|-------------------------------------------------|
B|-------------------------------------------------|
G|-8--8--8--8--8--8--8-----------------------------|
D|-8--8--8--8--8--8--8--7/8-8\-7/8-----------------|
A|-6--6--6--6--6--6--6--7/8-8\-7/8-----------------|
E|----------------------5/6-6\-5/6-----------------|
   until             i'm broke               to


e|-------------------------------------------------|
B|-------------------------------------------------|
G|-5--5--5--5--5--5--5--7--7--7--7--7--7--7--7-----|
D|-5--5--5--5--5--5--5--7--7--7--7--7--7--7--7-----|
A|-3--3--3--3--3--3--3--5--5--5--5--5--5--5--5-----|
E|-------------------------------------------------|
  laugh at every stupid joke!           because i


e|-------------------------------------------------|
B|-------------------------------------------------|
G|--8-(let ring)-----------------------------------|
D|--8----------------------------------------------|
A|--6----------------------------------------------|
E|-------------------------------------------------|
   want to-hoo.



************************************

| r  Release
| t  Tapping
| /  Slide up
| \  Slide down

************************************

            
            
Suggest correction
Creating personal tab
Creating personal tab
You can edit any tab online and save it as your Personal.

You can edit, replace or remove any tab part or add personal notes – all changes will be seen only by you.

Personal tabs can be accessed anytime from any device, even offline.
Learn more »
Give kudos to tab author, rate the tab!
1 2 3 4 5
comments
print report bad tab
guest
You may want to rate the tab now too:
select rating
Wanna post a correction for this tab? Suggest correction