Oops, an error
Loading. Please wait.

Dont Like You tab

28 views 1 this week
no commentswrite comment
1 2 3 4 5
3 more votes to show rating
add to favorites
×
Save as Personal and add changes to this tab that will be seen only by you. Learn more ›
×
You can save this tab as Personal to edit and correct it or add notes. All changes will be seen only by you. Learn more »
launch autoscroll
font size
0
reset
how to read this tab
guitar tuner
edit
Autoscroll
slow
fast
+/-
esc
set tempo
stop
Wannadies - Don't Like You


[Intro]

   [D]                G
e|--------------------3----------------------------|
B|--------------------0----------------------------|
G|--------------------0----------------------------|
D|--------------------0----------------------------|
A|--------------------2----------------------------|
E|--------------------3----------------------------|
      what we've become

          B              C  
e|--------2----------------------------------------|
B|--------4--------------1-------------------------|
G|--------4--------------0-------------------------|
D|--------4--------------2-------------------------|
A|--------2--------------3-------------------------|
E|--------2----------------------------------------|
    everything we had is gone

          G                B       C              [B, A]
    for a while I thought, we were best of friends
                 G    F#         B               C
    what's on my mind? I used to see you all the time
               
             C/A?   D           G
e|-------------0----2-----------3------------------|
B|-------------1----3-----------0------------------|
G|-------------0----2-----------0------------------|
D|-------------2----0-----------0------------------|
A|-------------0----------------2------------------|
E|------------------------------3------------------|
    that's all gone, the fun is gone

    G                    B          C
    you don't like me, I don't like you

                            D        G*
e|--------------------------2--------7-------------|
B|--------------------------3--------8-------------|
G|--------------------------2--------7-------------|
D|--------------------------0--------5-------------|
A|-------------------------------------------------|
E|-------------------------------------------------|
    what the hell are we supposed to do?

             D          C
    who's to blame this time?
   G                      B          C
    i don't like you, you don't like me
                                  D   G*
    whatever reason you've got, I disagree
             D          C
    who's to blame this time?


[Break]

e|--------10----8-----7---------------10-----------|
B|--8--------------------8-----7--10------7--10--7-|
G|-----7-----7-----7--------7----------------------|
D|-------------------------------------------------|
A|-------------------------------------------------|
E|-------------------------------------------------|


e|--------------10p8p7--------------7--------------| |---|
B|-----5--8--5----------8--------8-----------7-----| |-7-|
G|--5----------------------7--7-----------7-----7--| |-7-|
D|-------------------------------------7-----------| |-7-|
A|-------------------------------------------------| |-5-|
E|-------------------------------------------------| |---|

                    G                   B                     C
    what's there to say? don't know the rules, don't like the game
             G             B         C           [B, A]
    you're a fake I guess, so that's all the same
                   G   [F#]         B                C
    what's with my head? i'm tired, can't get out of bed
                C/A  D            G
    something's wrong, the fun is gone
   G                     B          C
    you don't like me, i don't like you
                            D        G*
    what the hell are we supposed to do?
             D          C
    who's to blame this time?
   G                      B          C
    i don't like you, you don't like me
                                  D   G*
    whatever reason you've got, i disagree
             D          C          [B] A
    who's to blame this time? who's to blame this time?


[Break 2] 

(same as 1)

e|--------10----8-----7---------------10-----------|
B|--8--------------------8-----7--10------7--10--7-|
G|-----7-----7-----7--------7----------------------|
D|-------------------------------------------------|
A|-------------------------------------------------|
E|-------------------------------------------------|

                                                       G*
e|--------------10p8p7--------------7--------------| |-7-|
B|-----5--8--5----------8--------8-----------7-----| |-8-|
G|--5----------------------7--7-----------7-----7--| |-7-|
D|-------------------------------------7-----------| |-5-|
A|-------------------------------------------------| |---|
E|-------------------------------------------------| |---|


************************************

| p  Pull-off
| r  Release
| t  Tapping

************************************

            
            
Suggest correction
Creating personal tab
Creating personal tab
You can edit any tab online and save it as your Personal.

You can edit, replace or remove any tab part or add personal notes – all changes will be seen only by you.

Personal tabs can be accessed anytime from any device, even offline.
Learn more »
Give kudos to tab author, rate the tab!
1 2 3 4 5
comments
print report bad tab
guest
You may want to rate the tab now too:
select rating
Wanna post a correction for this tab? Suggest correction