Oops, an error
Loading. Please wait.

Friends tab

version 2
version 2

Whole song

22 views 1 this week
no commentswrite comment
1 2 3 4 5
3 more votes to show rating
add to favorites
×
Save as Personal and add changes to this tab that will be seen only by you. Learn more ›
×
You can save this tab as Personal to edit and correct it or add notes. All changes will be seen only by you. Learn more »
launch autoscroll
font size
0
reset
how to read this tab
guitar tuner
edit
Autoscroll
slow
fast
+/-
esc
set tempo
stop
Wannadies -  Friends
Tuning: standard.
No Capo.


[Intro Part]

         2 guitars w/distortion

  guitar 1
e|-------------------------------------------------|
B|-------------------------------------------------|
G|--7-7-------7-7-------7-7--------7-7-7-----------|
D|--7-7-------7-7-------7-7--------7-7-7-----------|
A|--5-5-------5-5-------5-5--------5-5-5-----------|
E|-------------------------------------------------|

  guitar 2 (you could play this on guitar one if you if you want)
e|-------------------------------------------------|
B|-------------------------------------------------|
G|---------------------------5-5-5--------5-5-5----|
D|---------------------------5-5-5--------5-5-5----|
A|---------------------------3-3-3--------3-3-3----|
E|-------------------------------------------------|


[Part 2]

  guitar 1
e|-------------------------------------------------|
B|-------------------------------------------------|
G|--7-7-7---5-5-5---7-7-7---5-5-5------------------|
D|--7-7-7---5-5-5---7-7-7---5-5-5------------------|
A|--5-5-5---3-3-3---5-5-5---3-3-3------------------|
E|-------------------------------------------------|

  guitar 2
e|-------------------------------------------------|
B|--7---6---5---6---7---6---5---6------------------|
G|-------------------------------------------------|
D|-------------------------------------------------|
A|-------------------------------------------------|
E|-------------------------------------------------|


[Part 3]

  guitar 1
e|-------------------------------------------------|
B|-------------------------------------------------|
G|--7-7-7---5-5-5---7-7-7---5-5-5------------------|
D|--7-7-7---5-5-5---7-7-7---5-5-5------------------|
A|--5-5-5---3-3-3---5-5-5---3-3-3------------------|
E|-------------------------------------------------|


  guitar 2
e|-------------------------------------------------|
B|--7---6---5---6---7---6---5----------------------|
G|-------------------------------------------------|
D|-------------------------------------------------|
A|-------------------------------------------------|
E|-------------------------------------------------|


[Part 4]

  guitar 1
e|-------------------------------------------------|
B|-------------------------------------------------|
G|-------------------------------------------------|
D|--5-5-5---7-7-7---5-5-5---7-7-7------------------|
A|--5-5-5---7-7-7---5-5-5---7-7-7------------------|
E|--3-3-3---5-5-5---3-3-3---5-5-5------------------|


  guitar 2
e|-------------------------------------------------|
B|-------------------------------------------------|
G|--4---5---6---5---4---5---6---5------------------|
D|-------------------------------------------------|
A|-------------------------------------------------|
E|-------------------------------------------------|


[Part 5]

  guitar 1
e|-------------------------------------------------|
B|-------------------------------------------------|
G|-------------------------------------------------|
D|--5-5-5---7-7-7---5-5-5---7-7-7------------------|
A|--5-5-5---7-7-7---5-5-5---7-7-7------------------|
E|--3-3-3---5-5-5---3-3-3---5-5-5------------------|


  guitar 2
e|-------------------------------------------------|
B|-------------------------------------------------|
G|--4---5---6---5---4---5---6----------------------|
D|-------------------------------------------------|
A|-------------------------------------------------|
E|-------------------------------------------------|


[Part 6]

  guitar 1
e|-------------------------------------------------|
B|-------------------------------------------------|
G|--7-7-7---5-5-5---7-7-7---5-5-5------------------|
D|--7-7-7---5-5-5---7-7-7---5-5-5------------------|
A|--5-5-5---3-3-3---5-5-5---3-3-3------------------|
E|-------------------------------------------------|
    we go           to places


e|-------------------------------------------------|
B|-------------------------------------------------|
G|--7-7-7---5-5-5---7-7-7---5-5-5------------------|
D|--7-7-7---5-5-5---7-7-7---5-5-5------------------|
A|--5-5-5---3-3-3---5-5-5---3-3-3------------------|
E|-------------------------------------------------|
 where everything feels amazing


e|-------------------------------------------------|
B|-------------------------------------------------|
G|-------------------------------------------------|
D|--5-5-5---7-7-7---5-5-5---7-7-7------------------|
A|--5-5-5---7-7-7---5-5-5---7-7-7------------------|
E|--3-3-3---5-5-5---3-3-3---5-5-5------------------|
no need to pretend, we know we're good friends


e|------5-------------------------5----------------|
B|------7-------------------------5----------------|
G|------7-------------------------6----------------|
D|------7-------------------------7----------------|
A|------5-------------------------7----------------|
E|--------------------------------5----------------|
    and that's the way it should be.
         (keyboard effects)

  guitar 1
e|-------------------------------------------------|
B|-------------------------------------------------|
G|--7-7-7---5-5-5---7-7-7---5-5-5------------------|
D|--7-7-7---5-5-5---7-7-7---5-5-5------------------|
A|--5-5-5---3-3-3---5-5-5---3-3-3------------------|
E|-------------------------------------------------|
    then            its over
       (thenthenthen)

e|-------------------------------------------------|
B|-------------------------------------------------|
G|--7-7-7---5-5-5---7-7-7---5-5-5------------------|
D|--7-7-7---5-5-5---7-7-7---5-5-5------------------|
A|--5-5-5---3-3-3---5-5-5---3-3-3------------------|
E|-------------------------------------------------|
  a beautiful girl absorbed you


e|-------------------------------------------------|
B|-------------------------------------------------|
G|-------------------------------------------------|
D|--5-5-5---7-7-7---5-5-5---7-7-7------------------|
A|--5-5-5---7-7-7---5-5-5---7-7-7------------------|
E|--3-3-3---5-5-5---3-3-3---5-5-5------------------|
for you it's a game, and i'm in your way


e|-------------------------------------------------|
B|-------------------------------------------------|
G|-------------------------------------------------|
D|--5-5-5---7-7-7---7-7-7---7-7-7------------------|
A|--5-5-5---7-7-7---7-7-7---7-7-7------------------|
E|--3-3-3---5-5-5---5-5-5---5-5-5------------------|
i have to make sure i'm not ignored              i-


[Chorus]

  guitar 1
e|-------------------------------------------------|
B|-------------------------------------------------|
G|--7-7-7-7----------------------------------------|
D|--7-7-7-7-5-5-5-5-5-5-5-5-7-7-7-7----------------|
A|--5-5-5-5-5-5-5-5-5-5-5-5-7-7-7-7----------------|
E|----------3-3-3-3-3-3-3-3-5-5-5-5----------------|
  want you to know that i could break


  guitar 2 (follow lyrics)
e|-------------------------------------------------|
B|--7---5---3---------------3----------------------|
G|--------------4---2---4-------2------------------|
D|-------------------------------------------------|
A|-------------------------------------------------|
E|-------------------------------------------------|


[Part 8]

  guitar 1
e|-------------------------------------------------|
B|-------------------------------------------------|
G|--7-7-7-7----------------------------------------|
D|--7-7-7-7-5-5-5-5-5-5-5-5-7-7-7-7----------------|
A|--5-5-5-5-5-5-5-5-5-5-5-5-7-7-7-7----------------|
E|----------3-3-3-3-3-3-3-3-5-5-5-5----------------|
 your motorbike the one you like


  guitar 2
e|-------------------------------------------------|
B|--7---5---3-------3-------3/5--------------------|
G|--------------4-------4--------------------------|
D|-------------------------------------------------|
A|-------------------------------------------------|
E|-------------------------------------------------|


[Part 9]

  guitar 1
e|-------------------------------------------------|
B|-------------------------------------------------|
G|--7-7-7-7----------------------------------------|
D|--7-7-7-7-5-5-5-5-5-5-5-5-7-7-7-7----------------|
A|--5-5-5-5-5-5-5-5-5-5-5-5-7-7-7-7----------------|
E|----------3-3-3-3-3-3-3-3-5-5-5-5----------------|
  i want you to see how much i mean to


  guitar 2 (follow lyrics)
e|-------------------------------------------------|
B|--7---5---3---------------3----------------------|
G|--------------4---2---4-------2------------------|
D|-------------------------------------------------|
A|-------------------------------------------------|
E|-------------------------------------------------|


[Part 10]

  guitar 1
e|-------------------------------------------------|
B|-------------------------------------------------|
G|--7-7-7-7----------------------------------------|
D|--7-7-7-7-5-5-5-5-5-5-5-5-7-7-7-7----------------|
A|--5-5-5-5-5-5-5-5-5-5-5-5-7-7-7-7----------------|
E|----------3-3-3-3-3-3-3-3-5-5-5-5----------------|
 you, its you and me riiiight


  guitar 2
e|-------------------------------------------------|
B|--7---5---3-------3-------3/5--------------------|
G|--------------4-------4--------------------------|
D|-------------------------------------------------|
A|-------------------------------------------------|
E|-------------------------------------------------|


[Part 11]

  guitar 1
e|-------------------------------------------------|
B|-------------------------------------------------|
G|--7-7-7---5-5-5---7-7-7---5-5-5------------------|
D|--7-7-7---5-5-5---7-7-7---5-5-5------------------|
A|--5-5-5---3-3-3---5-5-5---3-3-3------------------|
E|-------------------------------------------------|
    friends!           ah-ah-ah-ah        ah

  guitar 2
e|-------------------------------------------------|
B|--7---6---5---6---7---6---5---6------------------|
G|-------------------------------------------------|
D|-------------------------------------------------|
A|-------------------------------------------------|
E|-------------------------------------------------|


[Part 12]

  guitar 1
e|-------------------------------------------------|
B|-------------------------------------------------|
G|--7-7-7---5-5-5---7-7-7---5-5-5------------------|
D|--7-7-7---5-5-5---7-7-7---5-5-5------------------|
A|--5-5-5---3-3-3---5-5-5---3-3-3------------------|
E|-------------------------------------------------|
    hah!

  guitar 2
e|-------------------------------------------------|
B|--7---6---5---6---7---6---5----------------------|
G|-------------------------------------------------|
D|-------------------------------------------------|
A|-------------------------------------------------|
E|-------------------------------------------------|


[Part 13]

  guitar 1
e|-------------------------------------------------|
B|-------------------------------------------------|
G|--7-7-7---5-5-5---7-7-7---5-5-5------------------|
D|--7-7-7---5-5-5---7-7-7---5-5-5------------------|
A|--5-5-5---3-3-3---5-5-5---3-3-3------------------|
E|-------------------------------------------------|
    now        you're sober
       (nownownownow etc.)

e|-------------------------------------------------|
B|-------------------------------------------------|
G|--7-7-7---5-5-5---7-7-7---5-5-5------------------|
D|--7-7-7---5-5-5---7-7-7---5-5-5------------------|
A|--5-5-5---3-3-3---5-5-5---3-3-3------------------|
E|-------------------------------------------------|
  did you really have to show her


-------------------------------------------------
u|-------------------------------------------------
i|-------------------------------------------------
t|--5-5-5---7-7-7---5-5-5---7-7-7------------------
--5-5-5---7-7-7---5-5-5---7-7-7------------------
r|--3-3-3---5-5-5---3-3-3---5-5-5------------------
 your talent and charm, you pushed me to far


e|------5-------------------------5----------------|
B|------7-------------------------5----------------|
G|------7-------------------------6----------------|
D|------7-------------------------7----------------|
A|------5-------------------------7----------------|
E|--------------------------------5----------------|
    its not the way  it  should  be.
            (keyboard effects)

  guitar 1
e|-------------------------------------------------|
B|-------------------------------------------------|
G|--7-7-7---5-5-5---7-7-7---5-5-5------------------|
D|--7-7-7---5-5-5---7-7-7---5-5-5------------------|
A|--5-5-5---3-3-3---5-5-5---3-3-3------------------|
E|-------------------------------------------------|
    blown           to pieces
       (blownblown)

e|-------------------------------------------------|
B|-------------------------------------------------|
G|--7-7-7---5-5-5---7-7-7---5-5-5------------------|
D|--7-7-7---5-5-5---7-7-7---5-5-5------------------|
A|--5-5-5---3-3-3---5-5-5---3-3-3------------------|
E|-------------------------------------------------|
  feels like you're a different species


e|-------------------------------------------------|
B|-------------------------------------------------|
G|-------------------------------------------------|
D|--5-5-5---7-7-7---5-5-5---7-7-7------------------|
A|--5-5-5---7-7-7---5-5-5---7-7-7------------------|
E|--3-3-3---5-5-5---3-3-3---5-5-5------------------|
 its always the same you play all these games


e|-------------------------------------------------|
B|-------------------------------------------------|
G|-------------------------------------------------|
D|--5-5-5---7-7-7---7-7-7---7-7-7------------------|
A|--5-5-5---7-7-7---7-7-7---7-7-7------------------|
E|--3-3-3---5-5-5---5-5-5---5-5-5------------------|
i have to make sure i'm not ignored              i-


[Chorus]

  guitar 1
e|-------------------------------------------------|
B|-------------------------------------------------|
G|--7-7-7-7----------------------------------------|
D|--7-7-7-7-5-5-5-5-5-5-5-5-7-7-7-7----------------|
A|--5-5-5-5-5-5-5-5-5-5-5-5-7-7-7-7----------------|
E|----------3-3-3-3-3-3-3-3-5-5-5-5----------------|
  want you to know that i could break


  guitar 2 (follow lyrics)
e|-------------------------------------------------|
B|--7---5---3---------------3----------------------|
G|--------------4---2---4-------2------------------|
D|-------------------------------------------------|
A|-------------------------------------------------|
E|-------------------------------------------------|


[Part 14]

  guitar 1
e|-------------------------------------------------|
B|-------------------------------------------------|
G|--7-7-7-7----------------------------------------|
D|--7-7-7-7-5-5-5-5-5-5-5-5-7-7-7-7----------------|
A|--5-5-5-5-5-5-5-5-5-5-5-5-7-7-7-7----------------|
E|----------3-3-3-3-3-3-3-3-5-5-5-5----------------|
 your motorbike i know you like it!


  guitar 2
e|-------------------------------------------------|
B|--7---5---3-------3-------3/5--------------------|
G|--------------4-------4--------------------------|
D|-------------------------------------------------|
A|-------------------------------------------------|
E|-------------------------------------------------|


[Part 15]

  guitar 1
e|-------------------------------------------------|
B|-------------------------------------------------|
G|--7-7-7-7----------------------------------------|
D|--7-7-7-7-5-5-5-5-5-5-5-5-7-7-7-7----------------|
A|--5-5-5-5-5-5-5-5-5-5-5-5-7-7-7-7----------------|
E|----------3-3-3-3-3-3-3-3-5-5-5-5----------------|
  i want you to see how much i mean to


  guitar 2 (follow lyrics)
e|-------------------------------------------------|
B|--7---5---3---------------3----------------------|
G|--------------4---2---4-------2------------------|
D|-------------------------------------------------|
A|-------------------------------------------------|
E|-------------------------------------------------|


[Part 16]

  guitar 1
e|-------------------------------------------------|
B|-------------------------------------------------|
G|--7-7-7-7----------------------------------------|
D|--7-7-7-7-5-5-5-5-5-5-5-5-7-7-7-7----------------|
A|--5-5-5-5-5-5-5-5-5-5-5-5-7-7-7-7----------------|
E|----------3-3-3-3-3-3-3-3-5-5-5-5----------------|
 you, its you and me riiiight


  guitar 2
e|-------------------------------------------------|
B|--7---5---3-------3-------3/5--------------------|
G|--------------4-------4--------------------------|
D|-------------------------------------------------|
A|-------------------------------------------------|
E|-------------------------------------------------|


[Part 17]

  guitar 1
e|-------------------------------------------------|
B|-------------------------------------------------|
G|--5-(let ring)-----------------------------------|
D|--5----------------------------------------------|
A|--3----------------------------------------------|
E|-------------------------------------------------|
    friends. (evil, sinister voice)


e|-------------------------------------------------|
B|-------------------------------------------------|
G|-------------------------------------------------|
D|-------------------------------------------------|
A|-------------------------------------------------|
E|--2-2-1-0-0-1-2-2-1-0-0-1-2-2-1-0-0-1-2-2-1-0-0--|
                                      one, two, three, four!

  guitar 1
e|-------------------------------------------------|
B|-------------------------------------------------|
G|--7-7-7---5-5-5---7-7-7---5-5-5------------------|
D|--7-7-7---5-5-5---7-7-7---5-5-5------------------|
A|--5-5-5---3-3-3---5-5-5---3-3-3------------------|
E|-------------------------------------------------|

  guitar 2
e|-------------------------------------------------|
B|--7---6---5---6---7---6---5---6------------------|
G|-------------------------------------------------|
D|-------------------------------------------------|
A|-------------------------------------------------|
E|-------------------------------------------------|


[Part 18]

  guitar 1
e|-------------------------------------------------|
B|-------------------------------------------------|
G|--7-7-7---5-5-5---7-7-7---5-5-5------------------|
D|--7-7-7---5-5-5---7-7-7---5-5-5------------------|
A|--5-5-5---3-3-3---5-5-5---3-3-3------------------|
E|-------------------------------------------------|


  guitar 2
e|-------------------------------------------------|
B|--7---6---5---6---7---6---5----------------------|
G|-------------------------------------------------|
D|-------------------------------------------------|
A|-------------------------------------------------|
E|-------------------------------------------------|


[Part 20]

  guitar 1
e|-------------------------------------------------|
B|-------------------------------------------------|
G|-------------------------------------------------|
D|--5-5-5---7-7-7---5-5-5---7-7-7------------------|
A|--5-5-5---7-7-7---5-5-5---7-7-7------------------|
E|--3-3-3---5-5-5---3-3-3---5-5-5------------------|


  guitar 2
e|-------------------------------------------------|
B|-------------------------------------------------|
G|--4---5---6---5---4---5---6---5------------------|
D|-------------------------------------------------|
A|-------------------------------------------------|
E|-------------------------------------------------|


[Part 21]

  guitar 1
e|-------------------------------------------------|
B|-------------------------------------------------|
G|-------------------------------------------------|
D|--5-5-5---7-7-7---7-7-7---7-7-7------------------|
A|--5-5-5---7-7-7---7-7-7---7-7-7------------------|
E|--3-3-3---5-5-5---5-5-5---5-5-5------------------|
                                          i-

  guitar 2
e|-------------------------------------------------|
B|-------------------------------------------------|
G|--4---5---6---5---6---5---6----------------------|
D|-------------------------------------------------|
A|-------------------------------------------------|
E|-------------------------------------------------|


[Chorus]

  guitar 1
e|-------------------------------------------------|
B|-------------------------------------------------|
G|--7-7-7-7----------------------------------------|
D|--7-7-7-7-5-5-5-5-5-5-5-5-7-7-7-7----------------|
A|--5-5-5-5-5-5-5-5-5-5-5-5-7-7-7-7----------------|
E|----------3-3-3-3-3-3-3-3-5-5-5-5----------------|
  want you to know that i could break


  guitar 2 (follow lyrics)
e|-------------------------------------------------|
B|--7---5---3---------------3----------------------|
G|--------------4---2---4-------2------------------|
D|-------------------------------------------------|
A|-------------------------------------------------|
E|-------------------------------------------------|


[Part 23]

  guitar 1
e|-------------------------------------------------|
B|-------------------------------------------------|
G|--7-7-7-7----------------------------------------|
D|--7-7-7-7-5-5-5-5-5-5-5-5-7-7-7-7----------------|
A|--5-5-5-5-5-5-5-5-5-5-5-5-7-7-7-7----------------|
E|----------3-3-3-3-3-3-3-3-5-5-5-5----------------|
 your motorbike i know you like it!


  guitar 2
e|-------------------------------------------------|
B|--7---5---3-------3-------3/5--------------------|
G|--------------4-------4--------------------------|
D|-------------------------------------------------|
A|-------------------------------------------------|
E|-------------------------------------------------|


[Part 24]

  guitar 1
e|-------------------------------------------------|
B|-------------------------------------------------|
G|--7-7-7-7----------------------------------------|
D|--7-7-7-7-5-5-5-5-5-5-5-5-7-7-7-7----------------|
A|--5-5-5-5-5-5-5-5-5-5-5-5-7-7-7-7----------------|
E|----------3-3-3-3-3-3-3-3-5-5-5-5----------------|
  i want you to see how much you mean to


  guitar 2 (follow lyrics)
e|-------------------------------------------------|
B|--7---5---3---------------3----------------------|
G|--------------4---2---4-------2------------------|
D|-------------------------------------------------|
A|-------------------------------------------------|
E|-------------------------------------------------|


[Part 25]

  guitar 1
e|-------------------------------------------------|
B|-------------------------------------------------|
G|--7-7-7-7----------------------------------------|
D|--7-7-7-7-5-5-5-5-5-5-5-5-7-7-7-7----------------|
A|--5-5-5-5-5-5-5-5-5-5-5-5-7-7-7-7----------------|
E|----------3-3-3-3-3-3-3-3-5-5-5-5----------------|
 me,  its you and me riiiight


  guitar 2
e|-------------------------------------------------|
B|--7---5---3-------3-------3/5--------------------|
G|--------------4-------4--------------------------|
D|-------------------------------------------------|
A|-------------------------------------------------|
E|-------------------------------------------------|


[Part 26]

  guitar 1
e|-------------------------------------------------|
B|-------------------------------------------------|
G|--7-7-7---5-5-5---7-7-7---5-5-5------------------|
D|--7-7-7---5-5-5---7-7-7---5-5-5------------------|
A|--5-5-5---3-3-3---5-5-5---3-3-3------------------|
E|-------------------------------------------------|
    friends!           ah-ah-ah-ah        ah

  guitar 2
e|-------------------------------------------------|
B|--7---6---5---6---7---6---5----------------------|
G|-------------------------------------------------|
D|-------------------------------------------------|
A|-------------------------------------------------|
E|-------------------------------------------------|


[Part 27]

  guitar 1
e|-------------------------------------------------|
B|-------------------------------------------------|
G|--7-7-7---5-5-5---7-7-7---5-5-5------------------|
D|--7-7-7---5-5-5---7-7-7---5-5-5------------------|
A|--5-5-5---3-3-3---5-5-5---3-3-3------------------|
E|-------------------------------------------------|
    hah!               ah-ah-ah-ah        ah!

  guitar 2
e|-------------------------------------------------|
B|--7---6---5---6---7---6---5----------------------|
G|-------------------------------------------------|
D|-------------------------------------------------|
A|-------------------------------------------------|
E|-------------------------------------------------|


[Part 28]

  guitar 1
e|-------------------------------------------------|
B|-------------------------------------------------|
G|--7-7-7---5-5-5---7-7-7---5-5-5------------------|
D|--7-7-7---5-5-5---7-7-7---5-5-5------------------|
A|--5-5-5---3-3-3---5-5-5---3-3-3------------------|
E|-------------------------------------------------|


  guitar 2
e|-------------------------------------------------|
B|--7---6---5---6---7---6---5----------------------|
G|-------------------------------------------------|
D|-------------------------------------------------|
A|-------------------------------------------------|
E|-------------------------------------------------|


[Part 29]

e|-------------------------------------------------|
B|-------------------------------------------------|
G|--7-7-7---5-5-5---7-7-7--------------------------|
D|--7-7-7---5-5-5---7-7-7--------------------------|
A|--5-5-5---3-3-3---5-5-5--------------------------|
E|-------------------------------------------------|



************************************

| r  Release
| t  Tapping
| /  Slide up 

************************************

            
            
Suggest correction
Creating personal tab
Creating personal tab
You can edit any tab online and save it as your Personal.

You can edit, replace or remove any tab part or add personal notes – all changes will be seen only by you.

Personal tabs can be accessed anytime from any device, even offline.
Learn more »
Give kudos to tab author, rate the tab!
1 2 3 4 5
comments
print report bad tab
guest
You may want to rate the tab now too:
select rating
Wanna post a correction for this tab? Suggest correction