Oops, an error
Loading. Please wait.

Free Falling tab

version 2
version 2

Whole song

  • This is a complete tab of the album version of the song.
151 views 3 this week
no commentswrite comment
1 2 3 4 5
3 more votes to show rating
add to favorites
×
Save as Personal and add changes to this tab that will be seen only by you. Learn more ›
×
You can save this tab as Personal to edit and correct it or add notes. All changes will be seen only by you. Learn more »
launch autoscroll
font size
0
reset
how to read this tab
guitar tuner
edit
Autoscroll
slow
fast
+/-
esc
set tempo
stop
About this tab version
This is a complete tab of the album version of the song. Was this info helpful? Yes No
[Intro]
e|-P.M.---------------------|--------------------------|--------------------------|--------------------------|
B|--------------------------|--------------------------|--------------------------|--------------------------|
G|--------------------------|--------------------------|--------------------------|--------------------------|
D|--------------------------|--------------------------|--------------------------|--------------------------|
A|--------------------------|--4--4--4--4--4--4--4--4--|--------------------------|--6--6--6--6--6--6--6--6--|
E|--1--1--1--1--1--1--1--1--|--------------------------|--4--4--4--4--4--4--4--4--|--------------------------|



e|-P.M.---------------------|--------------------------|--------------------------|--------------------------|
B|--------------------------|--------------------------|--------------------------|--------------------------|
G|--------------------------|--------------------------|--------------------------|--------------------------|
D|--------------------------|--------------------------|--------------------------|--------------------------|
A|--------------------------|--4--4--4--4--4--4--4--4--|--------------------------|--6--6--6--6--6--6--6--6--|
E|--1--1--1--1--1--1--1--1--|--------------------------|--4--4--4--4--4--4--4--4--|--------------------------|

       I put my life in   your hands                             I gave you    my     trust

e|-P.M.---------------------|--------------------------|--------------------------|--------------------------|
B|--------------------------|--------------------------|--------------------------|--------------------------|
G|--------------------------|--------------------------|--------------------------|--------------------------|
D|--------------------------|--------------------------|--------------------------|--------------------------|
A|--------------------------|--4--4--4--4--4--4--4--4--|--------------------------|--6--6--6--6--6--6--6--6--|
E|--1--1--1--1--1--1--1--1--|--------------------------|--4--4--4--4--4--4--4--4--|--------------------------|
     
       And I belived     every lie                              That came out of your mouth
 
e|-P.M.---------------------|--------------------------|--------------------------|--------------------------|
B|--------------------------|--------------------------|--------------------------|--------------------------|
G|--------------------------|--------------------------|--------------------------|--------------------------|
D|--------------------------|--------------------------|--------------------------|--------------------------|
A|--------------------------|--4--4--4--4--4--4--4--4--|--------------------------|--6--6--6--6--6--6--6--6--|
E|--1--1--1--1--1--1--1--1--|--------------------------|--4--4--4--4--4--4--4--4--|--------------------------|

       I'm getting soaked in my tears                           Drowning  in  my     fears

e|--------------------------|--------------------------|--------------------------|--------------------------|
B|--------------------------|--------------------------|--------------------------|--------------------------|
G|--------------------------|--------------------------|--------------------------|--------------------------|
D|--------------------------|--6--6--------6--6--------|--------------------------|--8--8--------8--8--------|
A|--3--3--------3--3--------|--4--4--------4--4--------|--6--6--------6--6--------|--6--6--------6--6--------|
E|--1--1--------1--1--------|--------------------------|--4--4--------4--4--------|--------------------4--3--|

    I       believe    that   we        had     a           chance                                     But it

e|--------------------------|--------------------------|--------------------------|--------------------------|
B|--------------------------|--------------------------|--------------------------|--------------------------|
G|--------------------------|--------------------------|--------------------------|--------------------------|
D|--------------------------|--6--6--------6--6--------|--------------------------|--8--8--8--8--8--8--8--8--|
A|--3--3--------3--3--------|--4--4--------4--4--------|--6--6--------6--6--------|--8--8--8--8--8--8--8--8--|
E|--1--1--------1--1--------|--------------------------|--4--4--------4--4--------|--------------------------|

    all         went        away with a    single         glance

e|--------------------------|
B|--------------------------|
G|--------------------------|
D|--8-----------------------|
A|--8-----------------------|
E|--------------------4--3--|

             Nothing has changed

[Chorus]
e|--------------------------|--------------------------|--------------------------|--------------------------|
B|--------------------------|--------------------------|--------------------------|--------------------------|
G|--------------------------|--------------------------|--------------------------|--------------------------|
D|--------------------------|--6--6--6--6--6--6--6--6--|--------------------------|--8--8--8--8--8--8--8--8--|
A|--3--3--3--3--3--3--3--3--|--4--4--4--4--4--4--4--4--|--6--6--6--6--6--6--6--6--|--6--6--6--6--6--6--6--6--|
E|--1--1--1--1--1--1--1--1--|--------------------------|--4--4--4--4--4--4--4--4--|--------------------------|

            I'm crashing...            I'm   burning      up and there's...     flame         You killed...

e|--------------------------|--------------------------|--------------------------|--------------------------|
B|--------------------------|--------------------------|--------------------------|--------------------------|
G|--------------------------|--------------------------|--------------------------|--------------------------|
D|--------------------------|--6--6--6--6--6--6--6--6--|--------------------------|--8--8--8--8--8--8--8--8--|
A|--3--3--3--3--3--3--3--3--|--4--4--4--4--4--4--4--4--|--6--6--6--6--6--6--6--6--|--6--6--6--6--6--6--6--6--|
E|--1--1--1--1--1--1--1--1--|--------------------------|--4--4--4--4--4--4--4--4--|--------------------------|

 dreams         Burned my...                Now  I'm      crying and screaming...          while I'm free...

e|--------------------------|--------------------------|--------------------------|--------------------------|
B|--------------------------|--------------------------|--------------------------|--------------------------|
G|--------------------------|--------------------------|--------------------------|--------------------------|
D|--------------------------|--------------------------|--------------------------|--------------------------|
A|--------------------------|--4--4--4--4--4--4--4--4--|--------------------------|--6--6--6--6--6--6--6--6--|
E|--1--1--1--1--1--1--1--1--|--------------------------|--4--4--4--4--4--4--4--4--|--------------------------|



e|-P.M.---------------------|--------------------------|--------------------------|--------------------------|
B|--------------------------|--------------------------|--------------------------|--------------------------|
G|--------------------------|--------------------------|--------------------------|--------------------------|
D|--------------------------|--------------------------|--------------------------|--------------------------|
A|--------------------------|--4--4--4--4--4--4--4--4--|--------------------------|--6--6--6--6--6--6--6--6--|
E|--1--1--1--1--1--1--1--1--|--------------------------|--4--4--4--4--4--4--4--4--|--------------------------|

    You         took my        fantasies    Turned my world           upside       down

e|-P.M.---------------------|--------------------------|--------------------------|--------------------------|
B|--------------------------|--------------------------|--------------------------|--------------------------|
G|--------------------------|--------------------------|--------------------------|--------------------------|
D|--------------------------|--------------------------|--------------------------|--------------------------|
A|--------------------------|--4--4--4--4--4--4--4--4--|--------------------------|--6--6--6--6--6--6--6--6--|
E|--1--1--1--1--1--1--1--1--|--------------------------|--4--4--4--4--4--4--4--4--|--------------------------|

     You        wore me        down not knowing you were hurting     me this much

e|--------------------------|--------------------------|--------------------------|--------------------------|
B|--------------------------|--------------------------|--------------------------|--------------------------|
G|--------------------------|--------------------------|--------------------------|--------------------------|
D|--------------------------|--------------------------|--------------------------|--------------------------|
A|-------------3------------|-------------4------------|-----------3-6------------|--6--6--6----1------------|
E|--1--------1--------------|--1--------1--------------|--4-----------------------|-----------3--------------|

    Now I can't go         back         there'll be       no           more   of us

e|--------------------------|--------------------------|--------------------------|--------------------------|
B|--------------------------|--------------------------|--------------------------|--------------------------|
G|--------------------------|--------------------------|--------------------------|--------------------------|
D|--------------------------|--6--6--------6--6--------|--------------------------|--8--8--------8--8--------|
A|--3--3--------3--3--------|--4--4--------4--4--------|--6--6--------6--6--------|--6--6--------6--6--------|
E|--1--1--------1--1--------|--------------------------|--4--4--------4--4--------|--------------------4--3--|

    I       believe    that   we        had     a           chance                                     But it

e|--------------------------|--------------------------|--------------------------|--------------------------|
B|--------------------------|--------------------------|--------------------------|--------------------------|
G|--------------------------|--------------------------|--------------------------|--------------------------|
D|--------------------------|--6--6--------6--6--------|--------------------------|--8--8--8--8--8--8--8--8--|
A|--3--3--------3--3--------|--4--4--------4--4--------|--6--6--------6--6--------|--8--8--8--8--8--8--8--8--|
E|--1--1--------1--1--------|--------------------------|--4--4--------4--4--------|--------------------------|

    all         went        away with a    single         glance
e|--------------------------|
B|--------------------------|
G|--------------------------|
D|--8-----------------------|
A|--8-----------------------|
E|--------------------4--3--|
 
             Nothing has changed

e|--------------------------|--------------------------|--------------------------|--------------------------|
B|--------------------------|--------------------------|--------------------------|--------------------------|
G|--------------------------|--------------------------|--------------------------|--------------------------|
D|--------------------------|--6--6--6--6--6--6--6--6--|--------------------------|--8--8--8--8--8--8--8--8--|
A|--3--3--3--3--3--3--3--3--|--4--4--4--4--4--4--4--4--|--6--6--6--6--6--6--6--6--|--6--6--6--6--6--6--6--6--|
E|--1--1--1--1--1--1--1--1--|--------------------------|--4--4--4--4--4--4--4--4--|--------------------------|

            I'm crashing...            I'm   burning      up and there's...     flame         You killed...

e|--------------------------|--------------------------|--------------------------|
B|--------------------------|--------------------------|--------------------------|
G|--------------------------|--------------------------|--------------------------|
D|--------------------------|--6--6--6--6--6--6--6--6--|--------------------------|
A|--3--3--3--3--3--3--3--3--|--4--4--4--4--4--4--4--4--|--6--6--6--6--6--6--6--6--|
E|--1--1--1--1--1--1--1--1--|--------------------------|--4--4--4--4--4--4--4--4--|

 dreams         Burned my...                Now  I'm      crying and screaming...  

[Solo]
e|------------15pbr--11--13-|------------15pbr--11--13--|--------------------------|-------------------------|
B|--------------------------|---------------------------|----------14--14--16--13--|----13--13--11br--9--11--|
G|--------------------------|---------------------------|--------------------------|-------------------------|
D|--------------------------|---------------------------|--------------------------|-------------------------|
A|--------------------------|---------------------------|--------------------------|-------------------------|
E|--------------------------|---------------------------|--------------------------|-------------------------|

while I'm free falling

e|----------------13----16br|-----------15------15--16--|----------------13----16br|-----------------15br----|
B|--------11br-13-----13----|---------------16----------|--------11br-13-----13----|---------------------16--|
G|--------------------------|---------------------------|--------------------------|-------------------------|
D|--------------------------|---------------------------|--------------------------|-------------------------|
A|--------------------------|---------------------------|--------------------------|-------------------------|
E|--------------------------|---------------------------|--------------------------|-------------------------|


I believe that we had a chance
And nothing will

e|--------------------------|--------------------------|--------------------------|--------------------------|
B|--------------------------|--------------------------|--------------------------|--------------------------|
G|--------------------------|--------------------------|--------------------------|--------------------------|
D|--------------------------|--6--6--6--6--6--6--6--6--|--------------------------|--8--8--8--8--8--8--8--8--|
A|--3--3--3--3--3--3--3--3--|--4--4--4--4--4--4--4--4--|--6--6--6--6--6--6--6--6--|--6--6--6--6--6--6--6--6--|
E|--1--1--1--1--1--1--1--1--|--------------------------|--4--4--4--4--4--4--4--4--|--------------------------|

            I'm crashing...            I'm   burning      up and there's...     flame         You killed...

e|--------------------------|--------------------------|--------------------------|
B|--------------------------|--------------------------|--------------------------|
G|--------------------------|--------------------------|--------------------------|
D|--------------------------|--6--6--6--6--6--6--6--6--|--------------------------|
A|--3--3--3--3--3--3--3--3--|--4--4--4--4--4--4--4--4--|--6--6--6--6--6--6--6--6--|
E|--1--1--1--1--1--1--1--1--|--------------------------|--4--4--4--4--4--4--4--4--|

 dreams         Burned my...                Now  I'm      crying and screaming...          while I'm free...


e|------------15pbr--11--13-|------------15pbr--11--13--|-------------13----13----|--11----------------------|
B|--------------------------|---------------------------|-------------------------|--------------------------|
G|--------------------------|---------------------------|-------------------------|--------------------------|
D|--------------------------|---------------------------|-------------------------|--------------------------|
A|--------------------------|---------------------------|-------------------------|--------------------------|
E|--------------------------|---------------------------|-------------------------|--------------------------|

   While I'm free fa-
e|------------15pbr--11--13-|------------15pbr--11--13--|-------------13----13----|--11----------------------|
B|--------------------------|---------------------------|-------------------------|--------------------------|
G|--------------------------|---------------------------|-------------------------|--------------------------|
D|--------------------------|---------------------------|-------------------------|--------------------------|
A|--------------------------|---------------------------|-------------------------|--------------------------|
E|--------------------------|---------------------------|-------------------------|--------------------------|


Free falling

************************************

| b   Bend
| br  Bend release
| pbr Pre-bend release
| PM  Palm mute

************************************

            
            
Suggest correction
Creating personal tab
Creating personal tab
You can edit any tab online and save it as your Personal.

You can edit, replace or remove any tab part or add personal notes – all changes will be seen only by you.

Personal tabs can be accessed anytime from any device, even offline.
Learn more »
Give kudos to tab author, rate the tab!
1 2 3 4 5
comments
print report bad tab
guest
You may want to rate the tab now too:
select rating
Wanna post a correction for this tab? Suggest correction