Oops, an error
Loading. Please wait.

Move This City tab

903 views 1 this week
1 commentread comment
1 2 3 4 5
1 last vote to show rating
add to favorites
×
Save as Personal and add changes to this tab that will be seen only by you. Learn more ›
×
You can save this tab as Personal to edit and correct it or add notes. All changes will be seen only by you. Learn more »
launch autoscroll
font size
0
reset
how to read this tab
guitar tuner
edit
Autoscroll
slow
fast
+/-
esc
set tempo
stop
Author
Difficulty
intro:
eb------------------------------------------------------------------------->
Bb----------------------------8-88~---------------------------------------->
Gb-1412-1412-14121412-1412--10----10-9~-1412-1412-14121412-14123-3-3-33-33->
Db-0-0--0-0--0-0-0-0--0-0-10~-----------0-0--0-0--0-0-0-0--0-0-3-3-3-33-33->
Ab-------------------------------------------------------------1-1-1-11-11->
Db------------------------------------------------------------------------->

verse 1:
eb------------------------------------------------------------------------->
Bb----------------------------888~--------------------------------888~----->
Gb-1412-1412-14121412-1412--10---10-9~-1412-1412-14121412-1412--10---10-9~->
Db-0-0--0-0--0-0-0-0--0-0-10~----------0-0--0-0--0-0-0-0--0-0-10~---------->
Ab------------------------------------------------------------------------->
Db------------------------------------------------------------------------->
and false accusations destroy relationships I hope you’re happy with all
the lies you’ve spread with all the lies you’ve spread

verse 1:
eb----------------------------------------------------------------->
Bb----------------------------------------------------------------->
Gb-7xx-7xx-7xxxx-7xx-7x-----888~-----1412-1412-14121412-14123~~---->
Db-7xx-7xx-7xxxx-7xx-7x---10---10-9~-0-0--0-0--0-0-0-0--0-0-3~~---->
Ab-5xx-5xx-5xxxx-5xx-5x-10~---------------------------------1~~---->
Db----------------------------------------------------------------->
well I say we change things up, trade out this hate with love bit has got
to start with us

chorus: (r= 10th fret)
eb-33333333/----------------------------------------->
Bb-66666666/rrrrrrrrr/------------------------------->
Gb-55555555/999999999/r-r-rr-r-r-rrr-r-r-rr-r-r-rrr--> repeat
Db-33333333/777777777/8-8-88-8-8-888-8-8-88-8-8-888-->
Ab-33333333/888888888-8-8-88-8-8-888-8-8-88-8-8-888-->
Db-33333333/777777777/8-8-88-8-8-888-8-8-88-8-8-888-->
let’s be the ones to move this city if you’re with me then say, whoa, yeah
and if we fail, we’ll just keep trying till we make it whoa, yeah

fill:
eb---------------------------->
Bb---------------------------->
Gb---------------------------->
Db-1412-1412-14121412-1412\3-->
Ab-0-0--0-0--0-0-0-0--0-0-\3-->
Db------------------------\3-->

verse 2:
eb------------------------------------------------------------------------->
Bb------------------------------------------------------------------------->
Gb---------2xxxxx2bbb333333333-----------------0022332233333333-0-2-0-2-0-->
Db-33333333----------333333333-00000000333333330000000033333333-3---3---3-->
Ab-33333333----------111111111-00000000333333330000000011111111-3---3---3-->
Db-33333333--------------------000000003333333300000000---------3---3---3-->
my strength is not determined by never messing up but that every time that
I fall down is one more time that I will get back up I’ll get back up so

---REPEAT CHORUS

bridge:
eb-----------------------r--5--5--5--5--------------5--5--5--5------------->
Bb-665-665-665-665----------3--3--3--3--r--r--r--r--3--3--3--3--r--r--r--r->
Gb-555-555-555-555----------------------r--r--r--r--------------r--r--r--r->
Db-----------------0xxxxx-00-00-00-00-88-88-88-88-00-00-00-00-88-88-88-88-->
Ab-----------------0xxxxx-00-00-00-00-88-88-88-88-00-00-00-00-88-88-88-88-->
Db-----------------0xxxxx-00-00-00-00-88-88-88-88-00-00-00-00-88-88-88-88-->
so choose you’re battles wisely get in line look around family

bridge:
eb---5--5--5--5---------------------------------------->
Bb---3--3--3--3--r--r--r--r---------------------------->
Gb---------------r--r--r--r---------------------------->
Db-00-00-00-00-88-88-88-88-00---xx88---xx00---xx88---\->
Ab-00-00-00-00-88-88-88-88-00---xx88---xx00---xx88---\->
Db-00-00-00-00-88-88-88-88-00---xx88---xx00---xx88---\->
is what you’ll find so choose you’re battles wisely get in line look around
family is what you’ll find

---REPEAT CHORUS

outro:
eb------------------------------------------>
Bb------------------------------------------>
Gb-141412-14-1412-141412-14-1412------------>
Db-0-0-0--0--0-0--0-0-0--0--0-0--0x~~------->
Ab-------------------------------0x~~------->
Db-------------------------------0x~~------->

            
            
Suggest correction
Creating personal tab
Creating personal tab
You can edit any tab online and save it as your Personal.

You can edit, replace or remove any tab part or add personal notes – all changes will be seen only by you.

Personal tabs can be accessed anytime from any device, even offline.
Learn more »
Give kudos to tab author, rate the tab!
1 2 3 4 5
comments
print report bad tab
1 comment total.
0 reply
greenshoes 42 Apr 30, 2006 01:31 PM

Dude all of The Wedding tabs you have are dead on!! You rock! Do you know them personally or something?

guest
You may want to rate the tab now too:
select rating
Wanna post a correction for this tab? Suggest correction