Oops, an error
Loading. Please wait.

Say Your Prayers bass

version 3
version 3

Whole song

  • This version is from the album polarity with drop ... Show more
22 views 3 this week
no commentswrite comment
1 2 3 4 5
3 more votes to show rating
add to favorites
×
Save as Personal and add changes to this tab that will be seen only by you. Learn more ›
×
You can save this tab as Personal to edit and correct it or add notes. All changes will be seen only by you. Learn more »
launch autoscroll
font size
0
reset
guitar tuner
edit
Autoscroll
slow
fast
+/-
esc
set tempo
stop
About this tab version
This version is from the album polarity with drop Db/C# Tuning for a Four-String Bass. Was this info helpful? Yes No
 [Intro]-0:00

F#|----|----------------|----------------|----------------|---------------|
C#|----|----------------|----------------|----------------|---------------|
G#|----|--0-0-0-0-0-0-0-|--0-0-0-0-0-0-0-|--3-3-3-3-3-3-3-|--5-5-5-5------|   X2
C#|--3-|----------------|----------------|----------------|---------5-6-7-|
(First bar is a Pick up measure. Don't play it the second time)

[Verse]-0:12
Look at you now just standing there...
F#|----------------|----------------|----------------|---------------|
C#|----------------|----------------|----------------|---------------|
G#|--0-0-0-0-0-0-0-|--0-0-0-0-0-0-0-|--3-3-3-3-3-3-3-|--5-5-5-5------| X3
C#|----------------|----------------|----------------|--------5-6-7--|

Fourth Time plus a measure of silence

F#|---------------|---------------|---------------|---------------|---------------|
C#|---------------|---------------|---------------|---------------|---------------|
G#|-0-0-0-0-0-0-0-|-0-0-0-0-0-0-0-|-3-3-3-3-3-3-3-|-5-5-5-5-------|---------------|
C#|---------------|---------------|---------------|--------5-6-7\-|---------------|

[Chorus]-0:36
You wanna walk with me...
F#|----------------|----------------|----------------|-----------------|
C#|----------------|----------------|----------------|-----------------|
G#|-3-3-3-3-3-3-3-3|-3-3-3-3-3-3-3-3|-3-3-3-3-3-3-3-3|-3-3-3-0-2-2-2---|
C#|----------------|----------------|----------------|---------------5-|

F#|----------------|----------------|----------------|-----------------|
C#|----------------|----------------|----------------|-----------------|
G#|-0-0-0-0-0-0-0-0|-0-0-0-0-0-0-0-0|-0-0-0-0-0-0-0-0|-5-5-5-5-7-7-7-7-|
C#|----------------|----------------|----------------|-----------------|

F#|----------------|----------------|----------------|-----------------|
C#|----------------|----------------|----------------|-----------------|
G#|----------------|----------------|----------------|-----------------|
C#|-3-3-3-3-3-3-3-3|-3-3-3-3-3-3-3-3|-3-3-3-3-3-3-3-3|-3-3-3-3-3-3-3-3-|

F#|----------------|----------------|----------------|-----------------|
C#|----------------|----------------|----------------|-----------------|
G#|----------------|----------------|----------------|-----------------|
C#|-5-5-5-5-5-5-5-5|-5-5-5-5-5-5-5-5|-5-5-5-5-5-5-5-5|-5-5-5-5-5-5-5-5-|

[Back To Verse]-1:00

F#|----------------|----------------|
C#|----------------|----------------|
G#|-0-0---0----3---|-0---5----------|
C#|-----5----------|--------5--0-5-7|

[Verse]-1:04
These people talking to me...
F#|---------------|---------------|---------------|---------------|
C#|---------------|---------------|---------------|---------------|
G#|-0-0-0-0-0-0-0-|-0-0-0-0-0-0-0-|-3-3-3-3-3-3-3-|-5-5-5-5-------| X3
C#|---------------|---------------|---------------|--------5-6-7--|

Fourth Time plus a measure of silence

F#|---------------|---------------|---------------|---------------|---------------|
C#|---------------|---------------|---------------|---------------|---------------|
G#|-0-0-0-0-0-0-0-|-0-0-0-0-0-0-0-|-3-3-3-3-3-3-3-|-5-5-5-5-------|---------------|
C#|---------------|---------------|---------------|--------5-6-7\-|---------------|

[Chorus]-1:29
You wanna walk with me...
F#|----------------|----------------|----------------|-----------------|
C#|----------------|----------------|----------------|-----------------|
G#|-3-3-3-3-3-3-3-3|-3-3-3-3-3-3-3-3|-3-3-3-3-3-3-3-3|-3-3-3-0-2-2-2---|
C#|----------------|----------------|----------------|---------------5-|

F#|----------------|----------------|----------------|-----------------|
C#|----------------|----------------|----------------|-----------------|
G#|-0-0-0-0-0-0-0-0|-0-0-0-0-0-0-0-0|-0-0-0-0-0-0-0-0|-5-5-5-5-7-7-7-7-|
C#|----------------|----------------|----------------|-----------------|

F#|----------------|----------------|----------------|-----------------|
C#|----------------|----------------|----------------|-----------------|
G#|----------------|----------------|----------------|-----------------|
C#|-3-3-3-3-3-3-3-3|-3-3-3-3-3-3-3-3|-3-3-3-3-3-3-3-3|-3-3-3-3-3-3-3-3-|

F#|----------------|----------------|----------------|-----------------|
C#|----------------|----------------|----------------|-----------------|
G#|----------------|----------------|----------------|-----------------|
C#|-5-5-5-5-5-5-5-5|-5-5-5-5-5-5-5-5|-5-5-5-5-5-5-5-5|-5-5-5-5-5-5-5-5-|

[Interlude]-1:52

F#|----------------|----------------|----------------|-----------------|
C#|----------------|----------------|----------------|-----------------|
G#|-----4--5--6----|--7-------------|-----4---5---6--|--7--------------| X3
C#|--7-------------|-----4---5---6--|--7-------------|-----4---5--6----|

(Fourth Time the slide down lasts two measures)
F#|----------------|----------------|----------------|-----------------|
C#|----------------|----------------|----------------|-----------------|
G#|-----4--5--6----|--7-------------|----------------|-----------------|
C#|--7-------------|-----4---5---6--|--7\------------|-----------------|

[Part Three]-2:16
Cause they're angels...                      
F#|----------------|----------------|----------------|-----------------|
C#|-----7--5-------|----------------|-----7--5-------|-----------------|
G#|--0--------7----|--5--3-0-3-0----|--0--------7----|--5--3-0-3-0-----| X4
C#|----------------|-------------5--|----------------|-----------------|
(This part is played as a swing)
[Breakdown] 

(Drums and vocals only)-2:39
Look up! Say your prayers...
F#|----------------|----------------|----------------|-----------------|
C#|----------------|----------------|----------------|-----------------|
G#|----------------|----------------|----------------|-----------------|
C#|----------------|----------------|----------------|-----------------|

[Part Four]-2:45
You want us to be like you always thought He would...
F#|----------------|----------------|----------------|-----------------|
C#|----------------|----------------|----------------|-----------------|
G#|-0-0-0-0-0-0-0-0|-0-0-0-0-0-0-0-0|-0-0-0-0-0-0-0-0|-0-0-0-0-0-0-0-0-|
C#|----------------|----------------|----------------|-----------------|

F#|----------------|----------------|----------------|-----------------|
C#|----------------|----------------|----------------|-----------------|
G#|----------------|----------------|----------------|-----------------|
C#|-3-3-3-3-3-3-3-3|-3-3-3-3-3-3-3-3|-3-3-3-3-3-3-3-3|-3-3-3-3-0-------|
                                                               >
[Chorus]-2:57
You wanna walk with me...
F#|----------------|----------------|----------------|-----------------|
C#|----------------|----------------|----------------|-----------------|
G#|-3-3-3-3-3-3-3-3|-3-3-3-3-3-3-3-3|-3-3-3-3-3-3-3-3|-3-3-3-3-2-2-2-2-|
C#|----------------|----------------|----------------|-----------------|

F#|----------------|----------------|----------------|-----------------|
C#|----------------|----------------|----------------|-----------------|
G#|-0-0-0-0-0-0-0-0|-0-0-0-0-0-0-0-0|-0-0-0-0-0-0-0-0|-5-5-5-5-7-7-7-7-|
C#|----------------|----------------|----------------|-----------------|

F#|----------------|----------------|----------------|-----------------|
C#|----------------|----------------|----------------|-----------------|
G#|----------------|----------------|----------------|-----------------|
C#|-3-3-3-3-3-3-3-3|-3-3-3-3-3-3-3-3|-3-3-3-3-3-3-3-3|-3-3-3-3-3-3-3-3-|

F#|----------------|----------------|----------------|-----------------|
C#|----------------|----------------|----------------|-----------------|
G#|----------------|----------------|----------------|-----------------|
C#|-5-5-5-5-5-5-5-5|-5-5-5-5-5-5-5-5|-5-5-5-5-5-5-5-5|-5-5-5-5-5-5-5-5-|

[Outro]-2:20

F#|----------------|----------------|----------------|----------------|
C#|----------------|----------------|----------------|----------------|
G#|--0-0-0-0-0-0-0-|--0-0-0-0-0-0-0-|--3-3-3-3-3-3-3-|--5-5-5-5-------|
C#|----------------|----------------|----------------|---------5-6-7--|

F#|----------------|----------------|----------------|----------------|
C#|----------------|----------------|----------------|----------------|
G#|--0-0-0-0-0-0-0-|--0-0-0-0-0-0-0-|--3-3-3-3-3-3-3-|--5-5-5-5-------|
C#|----------------|----------------|----------------|---------5-6-7\-|

************************************

| >   Accented note
| \   Slide down

************************************

            
            
Suggest correction
Creating personal tab
Creating personal tab
You can edit any tab online and save it as your Personal.

You can edit, replace or remove any tab part or add personal notes – all changes will be seen only by you.

Personal tabs can be accessed anytime from any device, even offline.
Learn more »
Give kudos to tab author, rate the tab!
1 2 3 4 5
comments
print report bad tab
guest
You may want to rate the tab now too:
select rating
Wanna post a correction for this tab? Suggest correction