Oops, an error
Loading. Please wait.
We have Chord Pro version of Cant Feel My Face.
It's the closest thing you can get to the original song and it has interactive parts. Check out the tab »
×

Cant Feel My Face tab

version 3
version 3

Whole song

Interactive

2,599 views 15 this week
no commentswrite comment
1 2 3 4 5
1 last vote to show rating
add to favorites
×
Save as Personal and add changes to this tab that will be seen only by you. Learn more ›
×
You can save this tab as Personal to edit and correct it or add notes. All changes will be seen only by you. Learn more »
launch autoscroll
font size
0
reset
how to read this tab
guitar tuner
edit
Autoscroll
slow
fast
+/-
esc
set tempo
stop
About this tab version
The whole song, and its relatively accurate. Was this info helpful? Yes No
[Verse]

(and i know she'll be the death of me...)
e|---------------3-----------------------------------------------------------|
B|-----3--5--5-5---3--3-3----3--3-3------------------------------------------|
G|--5----------------------5--------5--2-------------------------------------|
D|---------------------------------------------------------------------------|
A|---------------------------------------------------------------------------|
E|---------------------------------------------------------------------------|

(and she'll always get the best of me...)
e|---------------3-----------------------------------------------------------|
B|-----3--5--5-5---3--3-3----3--3-3------------------------------------------|
G|--5----------------------5--------5--2-------------------------------------|
D|---------------------------------------------------------------------------|
A|---------------------------------------------------------------------------|
E|---------------------------------------------------------------------------|

(but at least well both be beautiful ...)  (this i know...this i know)
e|---------------3-----------------------------------------------------------|
B|-----3--5--5-5---3--3-3----3--3-3------------------------------------------|
G|--5----------------------5--------5--2-----5p4--2----5p4--2----------------|
D|---------------------------------------------------------------------------|
A|---------------------------------------------------------------------------|
E|---------------------------------------------------------------------------|

(she told me don't ...)    (she told me don't worry no more)
e|-5-5-5----6p5--3---3-5----5-5-5----6p5--3--5-------------------------------|
B|--------8--------5---------------8-----------5-----------------------------|
G|---------------------------------------------------------------------------|
D|---------------------------------------------------------------------------|
A|---------------------------------------------------------------------------|
E|---------------------------------------------------------------------------|

(we both no we can't go...) (she told me you'll never..)
e|-5-5-5----6p5--3---3-5----5-5-5----6p5--3------3-5--8--10b12---------------|
B|--------8--------5---------------8---------5-5-----------------------------|
G|---------------------------------------------------------------------------|
D|---------------------------------------------------------------------------|
A|---------------------------------------------------------------------------|
E|---------------------------------------------------------------------------|

[Chorus]

(i can't feel my ..)   (but i..)(but i..)(i can't feel my ..)(but i..) (but..)
e|---------------------------------------------------------------------------|
B|---------------------------------------------------------------------------|
G|9-7-5-7--7-5-9p7-7---5h7-7-----5h7-----9-7-5-7--7-5-9p7-7---5h7-7-----5h7--|
D|---------------------------7-------7-----------------------------7-------7-|
A|---------------------------------------------------------------------------|
E|---------------------------------------------------------------------------|

[Verse]

(and i know she'll be the death of me...)
e|---------------3-----------------------------------------------------------|
B|-----3--5--5-5---3--3-3----3--3-3------------------------------------------|
G|--5----------------------5--------5--2-------------------------------------|
D|---------------------------------------------------------------------------|
A|---------------------------------------------------------------------------|
E|---------------------------------------------------------------------------|

(and she'll always get the best of me...)
e|---------------3-----------------------------------------------------------|
B|-----3--5--5-5---3--3-3----3--3-3------------------------------------------|
G|--5----------------------5--------5--2-------------------------------------|
D|---------------------------------------------------------------------------|
A|---------------------------------------------------------------------------|
E|---------------------------------------------------------------------------|

(all the misery..)
e|-------3-5-7-5-3-----------------------------------------------------------|
B|---3-5-----------5---------------------------------------------------------|
G|-5-----------------5--7-7-7-5--2s5----5p4--2---5p4---2---------------------|
D|---------------------------------------------------------------------------|
A|---------------------------------------------------------------------------|
E|---------------------------------------------------------------------------|

(she told me don't ...)    (she told me don't worry no more)
e|-5-5-5----6p5--3---3-5----5-5-5----6p5--3--5-------------------------------|
B|--------8--------5---------------8-----------5-----------------------------|
G|---------------------------------------------------------------------------|
D|---------------------------------------------------------------------------|
A|---------------------------------------------------------------------------|
E|---------------------------------------------------------------------------|

(we both no we can't go...) (she told me you'll never..)
e|-5-5-5----6p5--3---3-5----5-5-5----6p5--3------3-5--8--10b12---------------|
B|--------8--------5---------------8---------5-5-----------------------------|
G|---------------------------------------------------------------------------|
D|---------------------------------------------------------------------------|
A|---------------------------------------------------------------------------|
E|---------------------------------------------------------------------------|

[Chorus]

(i can't feel my ..)   (but i..)(but i..)(i can't feel my ..)(but i..) (but..)
e|---------------------------------------------------------------------------|
B|---------------------------------------------------------------------------|
G|9-7-5-7--7-5-9p7-7---5h7-7-----5h7-----9-7-5-7--7-5-9p7-7---5h7-7-----5h7--|
D|---------------------------7-------7-----------------------------7-------7-|
A|---------------------------------------------------------------------------|
E|---------------------------------------------------------------------------|

(i can't feel my face...)  (but i..)  (but i..)
e|---------------------------------------------------------------------------|
B|-------10-8-----8b7-6------------------------------------------------------|
G|-5-7-9--------------------5h7-7------5h7-7---------------------------------|
D|--------------------------------7----------7-------------------------------|
A|---------------------------------------------------------------------------|
E|---------------------------------------------------------------------------|

(i can't feel my face...)  (but i...) (but i..)   (ohhh..)
e|---------------------------------------------------------------------------|
B|-------10-8-----8b7-6----------------------------12---b13s10--8210---------|
G|-5-7-9--------------------5h7-7------5h7-7---------------------------------|
D|--------------------------------7----------7-------------------------------|
A|---------------------------------------------------------------------------|
E|---------------------------------------------------------------------------|

[Verse]

(she told me don't ...)    (she told me don't worry no more)
e|-5-5-5----6p5--3---3-5----5-5-5----6p5--3--5-------------------------------|
B|--------8--------5---------------8-----------5-----------------------------|
G|---------------------------------------------------------------------------|
D|---------------------------------------------------------------------------|
A|---------------------------------------------------------------------------|
E|---------------------------------------------------------------------------|

(we both no we can't go...) (she told me you'll never..)              (ooh!)
e|-5-5-5----6p5--3---3-5----5-5-5----6p5--3------3-5--8----------------13b14-|
B|--------8--------5---------------8---------5-5-----------------------------|
G|---------------------------------------------------------------------------|
D|---------------------------------------------------------------------------|
A|---------------------------------------------------------------------------|
E|---------------------------------------------------------------------------|

[Chorus]

(i can't feel my ..)   (but i..)(but i..)(i can't feel my ..)(but i..) (but..)
e|---------------------------------------------------------------------------|
B|---------------------------------------------------------------------------|
G|9-7-5-7--7-5-9p7-7---5h7-7-----5h7-----9-7-5-7--7-5-9p7-7---5h7-7-----5h7--|
D|---------------------------7-------7-----------------------------7-------7-|
A|---------------------------------------------------------------------------|
E|---------------------------------------------------------------------------|

(i can't feel my face...)  (but i..)  (but i..)
e|---------------------------------------------------------------------------|
B|-------10-8-----8b7-6------------------------------------------------------|
G|-5-7-9--------------------5h7-7------5h7-7---------------------------------|
D|--------------------------------7----------7-------------------------------|
A|---------------------------------------------------------------------------|
E|---------------------------------------------------------------------------|

(i can't feel my face...)  (but i...) (but i..)   
e|---------------------------------------------------------------------------|
B|-------10-8-----8b7-6------------------------------------------------------|
G|-5-7-9--------------------5h7-7------5h7-7---------------------------------|
D|--------------------------------7----------7-------------------------------|
A|---------------------------------------------------------------------------|
E|---------------------------------------------------------------------------|

[Outro]
(i can't feel..)                                 (hey!)
e|------------------------------------------------7b8------------------------|
B|-------10------------------------------------------------------------------|
G|-5-7-9---------------------------------------------------------------------|
D|---------------------------------------------------------------------------|
A|---------------------------------------------------------------------------|
E|---------------------------------------------------------------------------|




            
            
Suggest correction
Creating personal tab
Creating personal tab
You can edit any tab online and save it as your Personal.

You can edit, replace or remove any tab part or add personal notes – all changes will be seen only by you.

Personal tabs can be accessed anytime from any device, even offline.
Learn more »
Give kudos to tab author, rate the tab!
1 2 3 4 5
comments
print report bad tab
guest
You may want to rate the tab now too:
select rating
Wanna post a correction for this tab? Suggest correction