Oops, an error
Loading. Please wait.
We have Chord Pro version of I Feel It Coming.
It's the closest thing you can get to the original song and it has interactive parts. Check out the tab »
×
3,607 views 90 this week
no commentswrite comment
1 2 3 4 5
x 4
add to favorites
×
Save as Personal and add changes to this tab that will be seen only by you. Learn more ›
×
You can save this tab as Personal to edit and correct it or add notes. All changes will be seen only by you. Learn more »
launch autoscroll
font size
0
reset
how to read this tab
guitar tuner
edit
Autoscroll
slow
fast
+/-
esc
set tempo
stop
[Intro]

e|-----------------------|-----------------------|
B|-----------------------|-----------------------|
G|----3---3---3--5/7~~~--|----3---3---3--3/5~~~--|
D|--5---5---5------------|--5---5---5------------|
A|-----------------------|-----------------------|
E|-----------------------|-----------------------|

e|-----------------------|-----------------------|
B|-----------------------|------/7-5-3-3---------|
G|----3---3---3-5/7~~~---|--3-3----------5p3-3---|
D|--5---5---5------------|-----------------------|
A|-----------------------|-----------------------|
E|-----------------------|-----------------------|

e|-----------------------|-----------------------|
B|-----------------------|-----------------------|
G|----3---3---3--5/7~~~--|----3---3---3--3/5\3---|
D|--5---5---5------------|--5---5---5----------5-|
A|-----------------------|-----------------------|
E|-----------------------|-----------------------|

e|-----------------------|-----------------------|
B|-----------------------|------/7-5-3-3---------|
G|----3---3---3-5/7~~~---|--3-3----------5p3-3---|
D|--5---5---5------------|-----------------------|
A|-----------------------|-----------------------|
E|-----------------------|-----------------------|



[Verse 1]

e|--------------11h13-11-10----------------------|-------------11h13-11~~~--13-13/15\13-11~~~----|
B|--------11-13-------------11-11-11/13\11-11~~~-|--------11-13----------------------------------|
G|--12-12----------------------------------------|--12-12----------------------------------------|
D|-----------------------------------------------|-----------------------------------------------|
A|-----------------------------------------------|-----------------------------------------------|
E|-----------------------------------------------|-----------------------------------------------|

e|--------------11h13-11-10----------------------|-------------11h13-11~~~--13-13/15\13-11~~~----|
B|--------11-13-------------11-11-11/13\11-11~~~-|--------11-13----------------------------------|
G|--12-12----------------------------------------|--12-12----------------------------------------|
D|-----------------------------------------------|-----------------------------------------------|
A|-----------------------------------------------|-----------------------------------------------|
E|-----------------------------------------------|-----------------------------------------------|


[Chorus]

e|-----------------------|-----------------------|
B|--11-------------------|--11-------------------|
G|-----10/12-8-10-10~~~--|-----10/12-8-10-8-8~~~-|
D|-----------------------|-----------------------|
A|-----------------------|-----------------------|
E|-----------------------|-----------------------|

e|-----------------------|-----------------------|
B|--11-------------------|--11-------------------|
G|-----10/12-8-10-10~~~--|-----10/12-8-10-8-8~~~-|
D|-----------------------|-----------------------|
A|-----------------------|-----------------------|
E|-----------------------|-----------------------|

e|-----------------------|-----------------------|
B|--11-------------------|--11-------------------|
G|-----10/12-8-10-10~~~--|-----10/12-8-10-8-8~~~-|
D|-----------------------|-----------------------|
A|-----------------------|-----------------------|
E|-----------------------|-----------------------|

e|-----------------------|-----------------------|
B|--11-------------------|--11-------------------|
G|-----10/12-8-10-10~~~--|-----10/12-8-10-8-8~~~-|
D|-----------------------|-----------------------|
A|-----------------------|-----------------------|
E|-----------------------|-----------------------|

[Verse 1]

e|--------------11h13-11-10----------------------|-------------11h13-11~~~--13-13/15\13-11~~~----|
B|--------11-13-------------11-11-11/13\11-11~~~-|--------11-13----------------------------------|
G|--12-12----------------------------------------|--12-12----------------------------------------|
D|-----------------------------------------------|-----------------------------------------------|
A|-----------------------------------------------|-----------------------------------------------|
E|-----------------------------------------------|-----------------------------------------------|

e|--------------11h13-11-10----------------------|-------------11h13-11~~~--13-13/15\13-11~~~----|
B|--------11-13-------------11-11-11/13\11-11~~~-|--------11-13----------------------------------|
G|--12-12----------------------------------------|--12-12----------------------------------------|
D|-----------------------------------------------|-----------------------------------------------|
A|-----------------------------------------------|-----------------------------------------------|
E|-----------------------------------------------|-----------------------------------------------|

[Verse 2]

e|----------------------------------|----------------------------------|
B|-----11----11----12--13/15~~------|----11----11----11-11/13~~~-------|
G|--12----12----12------------------|-12----12----12-------------------|
D|----------------------------------|----------------------------------|
A|----------------------------------|----------------------------------|
E|----------------------------------|----------------------------------|

e|----------------------------------|-------13/15-13-11-11-------------|
B|-----11----11----12--13b15--------|-11-11----------------13p11-11~~~-|
G|--12----12----12------------------|----------------------------------|
D|----------------------------------|----------------------------------|
A|----------------------------------|----------------------------------|
E|----------------------------------|----------------------------------|

e|----------------------------------|----------------------------------|
B|-----11----11----12--13/15~~------|----11----11----11-11/13~~~-------|
G|--12----12----12------------------|-12----12----12-------------------|
D|----------------------------------|----------------------------------|
A|----------------------------------|----------------------------------|
E|----------------------------------|----------------------------------|

e|----------------------------------|-------13/15-13-11-11-------------|
B|-----11----11----12--13b15--------|-11-11----------------13p11-11~~~-|
G|--12----12----12------------------|----------------------------------|
D|----------------------------------|----------------------------------|
A|----------------------------------|----------------------------------|
E|----------------------------------|----------------------------------|

[Verse 1]

e|--------------11h13-11-10----------------------|-------------11h13-11~~~--13-13/15\13-11~~~----|
B|--------11-13-------------11-11-11/13\11-11~~~-|--------11-13----------------------------------|
G|--12-12----------------------------------------|--12-12----------------------------------------|
D|-----------------------------------------------|-----------------------------------------------|
A|-----------------------------------------------|-----------------------------------------------|
E|-----------------------------------------------|-----------------------------------------------|

e|--------------11h13-11-10----------------------|-------------11h13-11~~~--13-13/15\13-11~~~----|
B|--------11-13-------------11-11-11/13\11-11~~~-|--------11-13----------------------------------|
G|--12-12----------------------------------------|--12-12----------------------------------------|
D|-----------------------------------------------|-----------------------------------------------|
A|-----------------------------------------------|-----------------------------------------------|
E|-----------------------------------------------|-----------------------------------------------|

[Chorus]

e|-----------------------|-----------------------|
B|--11-------------------|--11-------------------|
G|-----10/12-8-10-10~~~--|-----10/12-8-10-8-8~~~-|
D|-----------------------|-----------------------|
A|-----------------------|-----------------------|
E|-----------------------|-----------------------|

e|-----------------------|-----------------------|
B|--11-------------------|--11-------------------|
G|-----10/12-8-10-10~~~--|-----10/12-8-10-8-8~~~-|
D|-----------------------|-----------------------|
A|-----------------------|-----------------------|
E|-----------------------|-----------------------|

e|-----------------------|-----------------------|
B|--11-------------------|--11-------------------|
G|-----10/12-8-10-10~~~--|-----10/12-8-10-8-8~~~-|
D|-----------------------|-----------------------|
A|-----------------------|-----------------------|
E|-----------------------|-----------------------|

e|-----------------------|-----------------------|
B|--11-------------------|--11-------------------|
G|-----10/12-8-10-10~~~--|-----10/12-8-10-8-8~~~-|
D|-----------------------|-----------------------|
A|-----------------------|-----------------------|
E|-----------------------|-----------------------|

[Verse 1]

e|--------------11h13-11-10----------------------|-------------11h13-11~~~--13-13/15\13-11~~~----|
B|--------11-13-------------11-11-11/13\11-11~~~-|--------11-13----------------------------------|
G|--12-12----------------------------------------|--12-12----------------------------------------|
D|-----------------------------------------------|-----------------------------------------------|
A|-----------------------------------------------|-----------------------------------------------|
E|-----------------------------------------------|-----------------------------------------------|

e|--------------11h13-11-10----------------------|-------------11h13-11~~~--13-13/15\13-11~~~----|
B|--------11-13-------------11-11-11/13\11-11~~~-|--------11-13----------------------------------|
G|--12-12----------------------------------------|--12-12----------------------------------------|
D|-----------------------------------------------|-----------------------------------------------|
A|-----------------------------------------------|-----------------------------------------------|
E|-----------------------------------------------|-----------------------------------------------|

[Chorus]

e|-----------------------|-----------------------|
B|--11-------------------|--11-------------------|
G|-----10/12-8-10-10~~~--|-----10/12-8-10-8-8~~~-|
D|-----------------------|-----------------------|
A|-----------------------|-----------------------|
E|-----------------------|-----------------------|

e|-----------------------|-----------------------|
B|--11-------------------|--11-------------------|
G|-----10/12-8-10-10~~~--|-----10/12-8-10-8-8~~~-|
D|-----------------------|-----------------------|
A|-----------------------|-----------------------|
E|-----------------------|-----------------------|

e|-----------------------|-----------------------|
B|--11-------------------|--11-------------------|
G|-----10/12-8-10-10~~~--|-----10/12-8-10-8-8~~~-|
D|-----------------------|-----------------------|
A|-----------------------|-----------------------|
E|-----------------------|-----------------------|

e|-----------------------|-----------------------|
B|--11-------------------|--11-------------------|
G|-----10/12-8-10-10~~~--|-----10/12-8-10-8-8~~~-|
D|-----------------------|-----------------------|
A|-----------------------|-----------------------|
E|-----------------------|-----------------------|


************************************

| h   Hammer-on
| p   Pull-off
| b   Bend
| /   Slide up
| \   Slide down
| ~   Vibrato

************************************

            
            
Suggest correction
Creating personal tab
Creating personal tab
You can edit any tab online and save it as your Personal.

You can edit, replace or remove any tab part or add personal notes – all changes will be seen only by you.

Personal tabs can be accessed anytime from any device, even offline.
Learn more »
comments
print report bad tab
guest
You may want to rate the tab now too:
select rating
Wanna post a correction for this tab? Suggest correction