Oops, an error
Loading. Please wait.
We have an official The Hills tab made by UG professional guitarists. Check out the tab »
×
1,984 views 6 this week
no commentswrite comment
1 2 3 4 5
x 3
add to favorites
×
Save as Personal and add changes to this tab that will be seen only by you. Learn more ›
×
You can save this tab as Personal to edit and correct it or add notes. All changes will be seen only by you. Learn more »
launch autoscroll
font size
0
reset
how to read this tab
guitar tuner
edit
Autoscroll
slow
fast
+/-
esc
set tempo
stop
Author
Difficulty
-------------------------------------------------------------------------------
                             SONG NAME - Band Name
-------------------------------------------------------------------------------
Tabbed by: Dougie.D
E-mail: olivialennon12@yahoo.co.uk

Tuning: Standard


This is ONLY the chorus I am still trying to work out the verses.
Here are the lyrics to help you:

I only call you when it's half past five
The only time that I'll be by your side
I only love it when you touch me, not feel me
When I'm fucked up, that's the real me
When I'm fucked up, that's the real me, yeah
e|-------6--------------------6--------------------6-------------------------|
B|-8-8-8---8-6-4-6------8-8-8---8-6-4-6------8-8-8---8-6-4-6---4-6---4-6-----|
G|-----------------5/-8-----------------5/-8-----------------5-----5-----5---|
D|---------------------------------------------------------------------------|
A|---------------------------------------------------------------------------|
E|---------------------------------------------------------------------------|

I only fuck you when it's half past five
The only time I'd ever call you mine
e|----------------------|-------6--------------------6------------------|
B|-4-6---4-6---4-6---4--|-8-8-8---8-6-4-6------8-8-8---8-6-4-6-8p-6-----|
G|-----5-----5-----5----|-----------------5/-8----------------------5---|
D|----------------------|-----------------------------------------------|
A|----------------------|-----------------------------------------------|
E|----------------------|-----------------------------------------------|

I only love it when you touch me, not feel me
When I'm fucked up, that's the real me
When I'm fucked up, that's the real me, babe
e|--------6------------------------------------------------------------------|
B|--8-8-8---8-6-4-6---4-6---4-6---4-6---4-6---4-6---4------------------------|
G|------------------5-----5-----5-----5-----5-----5--------------------------|
D|---------------------------------------------------------------------------|
A|---------------------------------------------------------------------------|
E|---------------------------------------------------------------------------|


************************************
| /   slide up
| p   pull-off
************************************

            
            
Suggest correction
Creating personal tab
Creating personal tab
You can edit any tab online and save it as your Personal.

You can edit, replace or remove any tab part or add personal notes – all changes will be seen only by you.

Personal tabs can be accessed anytime from any device, even offline.
Learn more »
Give kudos to tab author, rate the tab!
1 2 3 4 5
comments
print report bad tab
guest
You may want to rate the tab now too:
select rating
Wanna post a correction for this tab? Suggest correction