Oops, an error
Loading. Please wait.

Twenty Eight intro tab

644 views 6 this week
no commentswrite comment
1 2 3 4 5
1 last vote to show rating
add to favorites
×
Save as Personal and add changes to this tab that will be seen only by you. Learn more ›
×
You can save this tab as Personal to edit and correct it or add notes. All changes will be seen only by you. Learn more »
launch autoscroll
font size
0
reset
how to read this tab
guitar tuner
edit
Autoscroll
slow
fast
+/-
esc
set tempo
stop
-------------------------------------------------------------------------------
                             Twenty Eight - The Weeknd
-------------------------------------------------------------------------------
Tabbed by: Eddie Pineda
E-mail: eddie.ochoa1978@gmail.com

Tuning: Standard Capo 1st fret

Didn't like the chords on this site so I listened to the piano intro and 
transcribed it to the guitar.


As a side note the note's are very similar to the Weeknd's 
"Rolling Stone" song except for a few changes here and there.

(x)=optional note (sounds better played this way imo)

e|---------------------------------------------------------------------------|\
B|--7------7------7------7------6------6------6------6-----------------------| \
G|-(8)----(8)----(8)----(8)----(6)----(6)----(6)----(6)----------------------|  \
D|---------------------------------------------------------------------------|   \
A|----6------6------6------6------0------0------0------0---------------------|    \
E|---------------------------------------------------------------------------|     \
                                                                                    repeat until beat drops
e|---------------------------------------------------------------------------|     /
B|--4------4------4------4------7------7------7------7-----------------------|    /
G|-(4)----(4)----(4)----(4)----(8)----(8)----(8)----(8)----------------------|   /
D|---------------------------------------------------------------------------|  /
A|---------------------------------------------------------------------------| /
E|----4------4------4------4------7------7------7----7-----------------------|/

Once the beat kicks in you can use the same notes as a chord.
Just follow the tempo for the strumming pattern

e|---------------------------------------------------------------------------|
B|--7--------6--------4--------7---------------------------------------------|
G|--8--------6--------4--------8---------------------------------------------|
D|--x--------x--------x--------x---------------------------------------------|
A|--6--------0--------x--------x---------------------------------------------|
E|--------------------4--------7---------------------------------------------|




************************************

| /   slide up
| \   slide down
| h   hammer-on
| p   pull-off
| ~   vibrato
| +   harmonic
| x   Mute note
| b   Bend
| pb  Pre-bend
| br  Bend release
| pbr Pre-bend release
| brb Bend release bend

************************************

            
            
Suggest correction
Creating personal tab
Creating personal tab
You can edit any tab online and save it as your Personal.

You can edit, replace or remove any tab part or add personal notes – all changes will be seen only by you.

Personal tabs can be accessed anytime from any device, even offline.
Learn more »
Give kudos to tab author, rate the tab!
1 2 3 4 5
comments
print report bad tab
guest
You may want to rate the tab now too:
select rating
Wanna post a correction for this tab? Suggest correction