Oops, an error
Loading. Please wait.

And The Beat Goes On bass

version 2
version 2

Whole song

Interactive

15,697 views 36 this week
1 commentread comment
1 2 3 4 5
x 9
add to favorites
×
Save as Personal and add changes to this tab that will be seen only by you. Learn more ›
×
You can save this tab as Personal to edit and correct it or add notes. All changes will be seen only by you. Learn more »
launch autoscroll
font size
0
reset
guitar tuner
edit
Autoscroll
slow
fast
+/-
esc
set tempo
stop
Author
This song is an absolute classic, and really fun to play. I've tried to get down all the
separate parts, but it might be worth listening to the song itself to get the rhythm
and timing perfect. On the original recording this song was played with a plectrum but 
you can play it just as well with your fingers.


[Intro]

G|-------2---------------------|
D|----024-4--42---------5------|
A|-2-2-------------------------|
E|-------------2-2-3--3---3----|

G|-------2---------------------|
D|----024-4--42---------5------|
A|-2-2-------------------------|  [x2]
E|-------------2-2-3--3---3-5--|

G|-------2---------------------|
D|----024-4--42-------55\------|
A|-2-2-------------------------|
E|-------------2-2-3-----------|

G|-------2---------------------|
D|----024-4--42---------5------|
A|-2-2-------------------------|
E|-------------2-2-3--3---3-5--|

G|-------2---------------------|
D|----024-4--42---------5------|
A|-2-2-------------------------|
E|-------------2-2--3-3---3-5--|


[Chorus]

G|-------2---------------------|
D|----024-4--42---------5------|
A|-2-2-------------------------|
E|-------------2-2-3--3---3-5--|
                                [repeat throughout chorus]
|-------2---------------------|
|----024-4--42-------55\------|
|-2-2-------------------------|
|-------------2-2-3-----------|


[Verse]

G|-----4---------4---4---------|
D|-------0-2---2---2---22-4----|
A|-2-2------------------------2|  [x3]
E|--------------------------2--|

G|-----4---------4---4---------|
D|-------0-2---2---2---22-4----|
A|-2-2-------------------------|
E|--------------------------2--|


[Pre-Chorus]

G|-----------------------------|
D|-----------------------------|
A|-------5-5h7--------5h7------|
E|-0-000--------0-000----------|

G|-----------------------------|
D|-----------------------------|
A|-------5-5h7-----------------|
E|-0-000--------0-0-2-2--------|


And that's about it. You can listen to the song by following the link below to get the
precise timings, have fun :)

http://youtu.be/iY3WwnSEUms



************************************

| \  Slide down
| h  Hammer-on

************************************

            
            
Suggest correction
Creating personal tab
Creating personal tab
You can edit any tab online and save it as your Personal.

You can edit, replace or remove any tab part or add personal notes – all changes will be seen only by you.

Personal tabs can be accessed anytime from any device, even offline.
Learn more »
comments
print report bad tab
1 comment total.
0 reply
Krista4now 10 Sep 02, 2017 06:38 AM

Thanks

guest
You may want to rate the tab now too:
select rating
Wanna post a correction for this tab? Suggest correction