Oops, an error
Loading. Please wait.
We have an official Apple Blossom tab made by UG professional guitarists. Check out the tab »
×
7,569 views 1 this week
no commentswrite comment
1 2 3 4 5
x 5
add to favorites
×
Save as Personal and add changes to this tab that will be seen only by you. Learn more ›
×
You can save this tab as Personal to edit and correct it or add notes. All changes will be seen only by you. Learn more »
launch autoscroll
font size
0
reset
how to read this tab
guitar tuner
edit
Autoscroll
slow
fast
+/-
esc
set tempo
stop
Author
Tabbers playing skills
----------------------------------------------------------------------------
                   Apple Blossom - The White Stripes
----------------------------------------------------------------------------


Tabbed by: Dave S. 
Email: prime-prine@hotmail.com

Tuning: Standard

Artist: The White Stripes
Album: De Stijl
Year: 2000


*In the studio version all guitars were tuned slightly flat*



     Am                                             (VERSE)                       
     (Guitar)
E||-----------------------|-----------------------|-----------------------|
B||--1----1----1----1---1-|--1----1----1----1---1-|--1----1----1----1---1-|
G||--2----2----2----2---0-|--2----2----2----2---0-|--2----2----2----2---0-|
D||--2----2----2----2---0-|--2----2----2----2---0-|--2----2----2----2---0-|
A||--0----0----0----0---0-|--0----0----0----0---0-|--0----0----0----0---0-|
E||-----------------------|-----------------------|-----------------------|
                                                    
                                                  
                          Dm                                             
|-----------------------|--1----1----1----1---0-|--1----1----1----1---0-|
|--1----1----1----1---1-|--3----3----3----3---0-|--3----3----3----3---0-|
|--2----2----2----2---0-|--2----2----2----2---0-|--2----2----2----2---0-|
|--2----2----2----2---0-|--0----0----0----0---0-|--0----0----0----0---0-|
|--0----0----0----0---0-|-----------------------|-----------------------|
|-----------------------|-----------------------|-----------------------|


  Am                                              Em         G             
|-----------------------|-----------------------|------------------------|
|--1----1----1----1---1-|--1----1----1----1---1-|--0----0-----0----0-----|
|--2----2----2----2---0-|--2----2----2----2---0-|--0----0---0-0----0---0-|
|--2----2----2----2---0-|--2----2----2----2---0-|--2----2---0-0----0---0-|
|--0----0----0----0---0-|--0----0----0----0---0-|--2----2---0----------0-|
|-----------------------|-----------------------|--0----0-----3----3-----|


  Am                                                                   
|-----------------------|-----------------------|-----------------------|
|--1----1----1----1---1-|--1----1----1----1---1-|--1----1----1----1---1-|
|--2----2----2----2---0-|--2----2----2----2---0-|--2----2----2----2---0-|
|--2----2----2----2---0-|--2----2----2----2---0-|--2----2----2----2---0-|
|--0----0----0----0---0-|--0----0----0----0---0-|--0----0----0----0---0-|
|-----------------------|-----------------------|-----------------------|


  Dm                                              Am                     
|--1----1----1----1---0-|--1----1----1----1---0-|-----------------------|
|--3----3----3----3---0-|--3----3----3----3---0-|--1----1----1----1---1-|
|--2----2----2----2---0-|--2----2----2----2---0-|--2----2----2----2---0-|
|--0----0----0----0---0-|--0----0----0----0---0-|--2----2----2----2---0-|
|-----------------------|-----------------------|--0----0----0----0---0-|
|-----------------------|-----------------------|-----------------------|


                          Em         G             Am                        
|-----------------------|------------------------|-----------------------|
|--1----1----1----1---1-|--0----0-----0----0-----|--1----1--1----1--1----|
|--2----2----2----2---0-|--0----0---0-0----0---0-|--2----2--2----2--2----|
|--2----2----2----2---0-|--2----2---0-0----0---0-|--2----2--2----2--2----|
|--0----0----0----0---0-|--2----2---0----------0-|--0----0--0----0--0----|
|-----------------------|--0----0-----3----3-----|-----------------------|



CHORUS

   D                                 Am                                                
 (Guitar)
|---------------------------------|---------------------------|
|--3------------------------------|--1------------------------|
|--2------------------------------|--2------------------------|
|--0------------------------------|--2------------------------|
|---------------------------------|--0------------------------|
|---------------------------------|---------------------------|
|(Piano)
|--------------10-----------------|-----------5---------------|
|-----------10------10------------|---------5------5----------|
|---------11------------11--------|--------5----------5-------|
|--0----12------------------12----|-------7--------------7----|
|---------------------------------|--0------------------------|
|---------------------------------|---------------------------|


   Em                          Am
|---------------------------|---------------------------|
|--0------------------------|--1------------------------|
|--0------------------------|--2------------------------|
|--2------------------------|--2------------------------|
|--2------------------------|--0------------------------|
|--0------------------------|---------------------------|
| 
|-----------0---------------|-----------5---------------|
|---------0------0----------|---------5------5----------|
|--------0----------0-------|--------5----------5-------|
|-------2--------------2----|-------7--------------7----|
|---------------------------|--0------------------------|
|--0------------------------|---------------------------|



   D                                 Am                  B                                 
|---------------------------------|---------------------------|
|--3------------------------------|--1------------------------|
|--2------------------------------|--2------------------------|
|--0------------------------------|--2------------------------|
|---------------------------------|--0------------------------|
|---------------------------------|---------------------------|
|
|--------------10-----------------|-----------5---------------|
|-----------10------10------------|---------5------5----------|
|---------11------------11--------|--------5----------5-------|
|--0----12------------------12----|-------7--------------7----|
|---------------------------------|--0------------------------|
|---------------------------------|---------------------------|



   B                   Em           G 
|-------------------|----------------------|
|-------------------|----------------------|
|--4----------------|--0----0--0----0------|
|--4----------------|--2----2--2----0------|
|--2----------------|--2----2--2-----------|
|-------------------|--0----0--0----3------|
|
|-------------------|----------------------|
|-------------------|----------------------|
|--4----------------|----------------------|
|--4----------------|--2----2--2----5------|
|--2----------------|--2----2--2----5------|
|-------------------|--0----0--0----3------|


(VERSE)

   Am                                            
 (Guitar)
|-----------------------|-----------------------|
|--1----1----1----1---1-|--1----1----1----1---1-|
|--2----2----2----2---0-|--2----2----2----2---0-|
|--2----2----2----2---0-|--2----2----2----2---0-|
|--0----0----0----0---0-|--0----0----0----0---0-|
|-----------------------|-----------------------|
|(Piano)
|-----------------------|-----------------------|
|--5----5----5----5---0-|--5----5----5----5---0-|
|--5----5----5----5---0-|--5----5----5----5---0-|
|--7----7----7----7---0-|--7----7----7----7---0-|
|-----------------------|-----------------------|
|-----------------------|-----------------------|


  Dm                                              Am                      
|--1----1----1----1---0-|--1----1----1----1---0-|-----------------------|
|--3----3----3----3---0-|--3----3----3----3---0-|--1----1----1----1---1-|
|--2----2----2----2---0-|--2----2----2----2---0-|--2----2----2----2---0-|
|--0----0----0----0---0-|--0----0----0----0---0-|--2----2----2----2---0-|
|-----------------------|-----------------------|--0----0----0----0---0-|
|-----------------------|-----------------------|-----------------------|
|
|-----------------------|-----------------------|-----------------------|
|--6----6----6----6---0-|--6----6----6----6---0-|--5----5----5----5---0-|
|--7----7----7----7---0-|--7----7----7----7---0-|--5----5----5----5---0-|
|--7----7----7----7---0-|--7----7----7----7---0-|--7----7----7----7---0-|
|-----------------------|-----------------------|-----------------------|
|-----------------------|-----------------------|-----------------------|



                          Em         G             Am                     
|-----------------------|------------------------|-----------------------|
|--1----1----1----1---1-|--0----0-----0----0-----|--1----1----1----1---1-|
|--2----2----2----2---0-|--0----0---0-0----0---0-|--2----2----2----2---0-|
|--2----2----2----2---0-|--2----2---0-0----0---0-|--2----2----2----2---0-|
|--0----0----0----0---0-|--2----2---0----------0-|--0----0----0----0---0-|
|-----------------------|--0----0-----3----3-----|-----------------------|
|
|-----------------------|------------------------|-----------------------|
|--5----5----5----5---0-|------------------------|--5----5----5----5---0-|
|--5----5----5----5---0-|------------------------|--5----5----5----5---0-|
|--7----7----7----7---0-|--2----2---0-5----5---0-|--7----7----7----7---0-|
|-----------------------|--2----2---0-5----5---0-|-----------------------|
|-----------------------|--0----0-----3----3-----|-----------------------|



Guitar Solo

   Am
|----------------------------|-----------------------|
|----------------------------|-----------------------|
|----------------------------|-----------------------|
|--0--2----2--2---0----------|-----------------------|
|----------------------3\\2--|--0--------------------|
|----------------------------|-----------------------|

   Dm    
|-----------------------|-----------------------|
|-----------------------|-----------------------|
|--0---2--2--0----------|-----------------------|
|-----------------3\\2--|--0--------------------|
|-----------------------|-----------------------|
|-----------------------|-----------------------|

   Am 
|-----------------------|-----------------------|
|-----------------------|-----------------------|
|-----------------------|-----------------------|
|--0---2--2--0----------|-----------------------|
|-----------------3\\2--|--0--------------------|
|-----------------------|-----------------------|

   B 
|----------------------|------------------|
|----------------------|------------------|
|----------------------|------------------|
|----------------------|------------------|
|--2--2--2--3----3--2--|------------------|
|----------------------|----0--------3----|

   Am
|---------------------|------------------|
|--3/5--5\3-----------|------------------|
|---------------5\\4--|--2~~~~-----------|
|---------------------|------------------|
|---------------------|------------------|
|---------------------|------------------|

   Dm
|--3/5--5\3-----------|------------------|
|---------------6\\5--|--3~~~~-----------|
|---------------------|------------------|
|---------------------|------------------|
|---------------------|------------------|
|---------------------|------------------|

   Am                                           Em         G    Am
|---------------------|---------------------|---------------------------|
|---------------------|---------------------|---------------------------|
|--7/9--5/7--4--5--4--|--5--7--5--4----2----|--2/4----4--4-----0h2~~~~--|
|---------------------|---------------------|--------------2------------|
|---------------------|---------------------|---------------------------|
|---------------------|---------------------|---------------------------|



*REPEAT CHORUS*



(VERSE)

   Am                                            
 (Guitar)
|-----------------------|-----------------------|
|--1----1----1----1---1-|--1----1----1----1---1-|
|--2----2----2----2---0-|--2----2----2----2---0-|
|--2----2----2----2---0-|--2----2----2----2---0-|
|--0----0----0----0---0-|--0----0----0----0---0-|
|-----------------------|-----------------------|
|(Piano)
|-----------------------|-----------------------|
|--5----5----5----5---0-|--5----5----5----5---0-|
|--5----5----5----5---0-|--5----5----5----5---0-|
|--7----7----7----7---0-|--7----7----7----7---0-|
|-----------------------|-----------------------|
|-----------------------|-----------------------|


  Dm                                              Am                      
|--1----1----1----1---0-|--1----1----1----1---0-|-----------------------|
|--3----3----3----3---0-|--3----3----3----3---0-|--1----1----1----1---1-|
|--2----2----2----2---0-|--2----2----2----2---0-|--2----2----2----2---0-|
|--0----0----0----0---0-|--0----0----0----0---0-|--2----2----2----2---0-|
|-----------------------|-----------------------|--0----0----0----0---0-|
|-----------------------|-----------------------|-----------------------|
|
|-----------------------|-----------------------|-----------------------|
|--6----6----6----6---0-|--6----6----6----6---0-|--5----5----5----5---0-|
|--7----7----7----7---0-|--7----7----7----7---0-|--5----5----5----5---0-|
|--7----7----7----7---0-|--7----7----7----7---0-|--7----7----7----7---0-|
|-----------------------|-----------------------|-----------------------|
|-----------------------|-----------------------|-----------------------|


                          Em         G                                 
|-----------------------|------------------------|
|--1----1----1----1---1-|--0----0-----0----0-----|
|--2----2----2----2---0-|--0----0---0-0----0---0-|
|--2----2----2----2---0-|--2----2---0-0----0---0-|
|--0----0----0----0---0-|--2----2---0----------0-|
|-----------------------|--0----0-----3----3-----|
|
|-----------------------|------------------------|
|--5----5----5----5---0-|------------------------|
|--5----5----5----5---0-|------------------------|
|--7----7----7----7---0-|--2----2---0-5----5---0-|
|-----------------------|--2----2---0-5----5---0-|
|-----------------------|--0----0-----3----3-----|


  Am                  Em       G           Am                                
|--0----------------|--------------------|--0----------------|
|--1----------------|--0--------0--------|--1----------------|
|--2----------------|--0--------0--------|--2----------------|
|--2----------------|--2--------0--------|--2----------------|
|--0----------------|--2-----------------|--0----------------|
|-------------------|--0--------3--------|-------------------|
|
|--5----------------|--------------------|--5----------------|
|--5----------------|--8--------3--------|--5----------------|
|--5----------------|--9--------4--------|--5----------------|
|--7----------------|--9--------5--------|--7----------------|
|--0----------------|--7--------5--------|--0----------------|
|-------------------|--0--------3--------|-------------------|


  Em       G              Am                              
|--------------------|-----------------------||
|--0--------0--------|--x--1----1-1----------||
|--0--------0--------|--x--2----2-2----------||
|--2--------0--------|--x--2----2-2----------||
|--2-----------------|--x--0----0-0----------||
|--0--------3--------|-----------------------||
|
|--------------------|-----------------------||
|--8--------3--------|--x--5----5-5----------||
|--9--------4--------|--x--7----7-7----------||
|--9--------5--------|--x--7----7-7----------||
|--7--------5--------|--x--0----0-0----------||
|--0--------3--------|-----------------------||


Am
Hey little apple blossom
     Dm
What seems to be the problem
Am
all the ones you tell your troubles to
     Em           G        Am
They don't really care for you


Am
Come and tell me what you're thinking
      Dm
Cause just when the boat is sinking
Am
a little light is blinking
    Em              G      Am
and I will come and rescue you


Chorus
D                  Am
Lots of girls walk around in tears
Em                 Am
but that's not for you
D                        Am
You've been looking all around for years
        B5                        E5  G5
for someone to tell your troubles to


Am
Come and sit with me and talk awhile
Dm
let me see your pretty little smile
Am
put your troubles in a little pile
    Em               G       Am   Em
and I will sort them out for you
             G         Am   Em
I'll fall in love with you
             G     Am
I think I'll marry you


| /  slide up
| \  slide down
| h  hammer-on
| p  pull-off
| ~  vibrato
| +  harmonic
| x  Mute note
===========================================================================



            
            
Suggest correction
Creating personal tab
Creating personal tab
You can edit any tab online and save it as your Personal.

You can edit, replace or remove any tab part or add personal notes – all changes will be seen only by you.

Personal tabs can be accessed anytime from any device, even offline.
Learn more »
comments
print report bad tab
guest
You may want to rate the tab now too:
select rating
Wanna post a correction for this tab? Suggest correction