Oops, an error
Loading. Please wait.
We have an official Girl You Have No Faith In Medicine tab made by UG professional guitarists. Check out the tab »
×
61,567 views 39 this week
5 commentsread comments
1 2 3 4 5
x 37
add to favorites
×
Save as Personal and add changes to this tab that will be seen only by you. Learn more ›
×
You can save this tab as Personal to edit and correct it or add notes. All changes will be seen only by you. Learn more »
launch autoscroll
font size
0
reset
how to read this tab
guitar tuner
edit
Autoscroll
slow
fast
+/-
esc
set tempo
stop
Author
Tabbers playing skills
----------------------------------------------------------------------------
         Girl You Have No Faith in Medicine - White Stripes
----------------------------------------------------------------------------

Tabbed by: Dave S.
Email: Dlgibson@netscape.com

Tuning: Standard


Intro
e|-------------------------------------------------------------------------|
B|-------------------------------------------------------------------------|
G|-------------------------------------------------------------------------|
D|---2----5---5--5--2-------5----5---5--5--2-------(Repeat 4x)-------------|
A|---2----5---5--5--2-------5----5---5--5--2-------------------------------|
E|---0----3---3--3--0-------3----3---3--3--0-------------------------------|

e|-------------------------------------------------------------------------|
B|-------------------------------------------------------------------------|
G|---2----2---2--2----------2----2---2--2----------------------------------|
D|---2----2---2--2--2-------2----2---2--2--2-------------------------------|
A|---0----0---0--0--2-------0----0---0--0--2-------------------------------|
E|------------------0----------------------0-------------------------------|

e|-------------------------------------------------------------------------|
B|-------------------------------------------------------------------------|
G|-------------------------------------------------------------------------|
D|---2----5---5--5--2-------5----5---5--5--2-------------------------------|
A|---2----5---5--5--2-------5----5---5--5--2-------------------------------|
E|---0----3---3--3--0-------3----3---3--3--0-------------------------------|

e|--------------------------------------------3-3-3-3-3--------------------|
B|--------------------------------------------2-2-2-2-2--------------------|
G|---4---4-4----------7--7-7-7-------2--2-----2-2-2-2-2--------------------|
D|---4---4-4----------7--7-7-7-------2--2-----2-2-2-2-2--------------------|
A|---2---2-2----------5--5-5-5-------0--0----------------------------------|
E|-------------------------------------------------------------------------|

e|-------------------------------------------------------------------------|
B|-------------------------------------------------------------------------|
G|-------------------------------------------------------------------------|
D|---2----5---5--5--2-------5----5---5--5--2-------------------------------|
A|---2----5---5--5--2-------5----5---5--5--2-------------------------------|
E|---0----3---3--3--0-------3----3---3--3--0-------------------------------|


Chorus
e|-------------------------------------------------------------------------|
B|-------------------------------------------------------------------------|
G|-------------------------------------------------(Repeat 2x)-------------|
D|---2----5---5--5--2-------5----5---5--5--2-------------------------------|
A|---2----5---5--5--2-------5----5---5--5--2-------------------------------|
E|---0----3---3--3--0-------3----3---3--3--0-------------------------------|

e|-------------------------------------------------------------------------|
B|-------------------------------------------------------------------------|
G|---2----2---2--2----------2----2---2--2----------------------------------|
D|---2----2---2--2--2-------2----2---2--2--2-------------------------------|
A|---0----0---0--0--2-------0----0---0--0--2-------------------------------|
E|------------------0----------------------0-------------------------------|

e|-------------------------------------------------------------------------|
B|-------------------------------------------------------------------------|
G|-------------------------------------------------------------------------|
D|---2----5---5--5--2-------5----5---5--5--2-------------------------------|
A|---2----5---5--5--2-------5----5---5--5--2-------------------------------|
E|---0----3---3--3--0-------3----3---3--3--0-------------------------------|

e|-------------------------------------------------------------------------|
B|-------------------------------------------------------------------------|
G|-------------------------------------------------------------------------|
D|---9----9----9--9--9--9----12----12----12--12--12--12--------------------|
A|---9----9----9--9--9--9----12----12----12--12--12--12--------------------|
E|---7----7----7--7--7--7----10----10----10--10--10--10--------------------|


Verse
e|-------------------------------------------------------------------------|
B|-------------------------------------------------------------------------|
G|-------------------------------------------------------------------------|
D|---2----5---5--5--2-------5----5---5--5--2-------------------------------|
A|---2----5---5--5--2-------5----5---5--5--2-------------------------------|
E|---0----3---3--3--0-------3----3---3--3--0-------------------------------|

e|-------------------------------------------------------------------------|
B|-------------------------------------------------------------------------|
G|-------------------------------------------------------------------------|
D|---2---------------------------------------------------------------------|
A|---2---------------------------------------------------------------------|
E|---0---------------------------------------------------------------------|

e|-------------------------------------------------------------------------|
B|-------------------------------------------------------------------------|
G|-------------------------------------------------------------------------|
D|---2----5---5--5--2-------5----5---5--5--2-------------------------------|
A|---2----5---5--5--2-------5----5---5--5--2-------------------------------|
E|---0----3---3--3--0-------3----3---3--3--0-------------------------------|

e|-------------------------------------------------------------------------|
B|-------------------------------------------------------------------------|
G|-------------------------------------------------------------------------|
D|---2---------------------------------------------------------------------|
A|---2---------------------------------------------------------------------|
E|---0---------------------------------------------------------------------|

e|-------------------------------------------------------------------------|
B|-------------------------------------------------------------------------|
G|-------------------------------------------------------------------------|
D|---2----5---5--5--2-------5----5---5--5--2-------------------------------|
A|---2----5---5--5--2-------5----5---5--5--2-------------------------------|
E|---0----3---3--3--0-------3----3---3--3--0-------------------------------|

e|-------------------------------------------------------------------------|
B|-------------------------------------------------------------------------|
G|---2---------------------------------------------------------------------|
D|---2---------------------------------------------------------------------|
A|---0---------------------------------------------------------------------|
E|-------------------------------------------------------------------------|

e|-------------------------------------------------------------------------|
B|-------------------------------------------------------------------------|
G|---2----2---2--2----------2----2---2--2----------------------------------|
D|---2----2---2--2--2-------2----2---2--2--2-------------------------------|
A|---0----0---0--0--2-------0----0---0--0--2-------------------------------|
E|------------------0----------------------0-------------------------------|

e|-------------------------------------------------------------------------|
B|-------------------------------------------------------------------------|
G|-------------------------------------------------------------------------|
D|---2---------------------------------------------------------------------|
A|---2---------------------------------------------------------------------|
E|---0---------------------------------------------------------------------|

e|-------------------------------------------------------------------------|
B|-------------------------------------------------------------------------|
G|-------------------------------------------------------------------------|
D|---2----5---5--5--2-------5----5---5--5--2-------------------------------|
A|---2----5---5--5--2-------5----5---5--5--2-------------------------------|
E|---0----3---3--3--0-------3----3---3--3--0-------------------------------|

e|-------------------------------------------------------------------------|
B|-------------------------------------------------------------------------|
G|-------------------------------------------------------------------------|
D|---9----9----9--9--9--9----12----12----12--12--12--12--------------------|
A|---9----9----9--9--9--9----12----12----12--12--12--12--------------------|
E|---7----7----7--7--7--7----10----10----10--10--10--10--------------------|


(Repeat Chorus)

Solo
e|-----------3b4r-----3p0--------------------------------------------------|
B|------------------------3p0----------------------------------------------|
G|----------------------------2b3----2p0-----------------------------------|
D|---2-----------------------------------2p0-------------------------------|
A|---2---------------------------------------2p0---------------------------|
E|---0-------------------------------------------3p0-----------------------|

e|-------------------------------------------------------------------------|
B|-------------------------------------------------------------------------|
G|-------------------------------------------------------------------------|
D|---2----5---5--5--2-------5----5---5--5--2-------------------------------|
A|---2----5---5--5--2-------5----5---5--5--2-------------------------------|
E|---0----3---3--3--0-------3----3---3--3--0-------------------------------|

e|------------3~~~~~~--3p0-------------------------------------------------|
B|----------X--------------3p0---------------------------------------------|
G|-----------------------------2b3r------2p0-------------------------------|
D|---2---------------------------------------2p0---------------------------|
A|---2---------------------------------------------------------------------|
E|---0---------------------------------------------------------------------|

e|-------------------------------------------------------------------------|
B|-------------------------------------------------------------------------|
G|-------------------------------------------------------------------------|
D|---2----5---5--5--2-------5----5---5--5--2-------------------------------|
A|---2----5---5--5--2-------5----5---5--5--2-------------------------------|
E|---0----3---3--3--0-------3----3---3--3--0-------------------------------|

e|----------5---------5-5-5-5------5-5------5-5----------------------------|
B|------------8b10r-----------8b10-----8b10-----8b10r----------------------|
G|---2---------------------------------------------------------------------|
D|---2---------------------------------------------------------------------|
A|---0---------------------------------------------------------------------|
E|-------------------------------------------------------------------------|

e|-------------------------------------------------------------------------|
B|-------------------------------------------------------------------------|
G|---2----2---2--2----------2----2---2--2----------------------------------|
D|---2----2---2--2--2-------2----2---2--2--2-------------------------------|
A|---0----0---0--0--2-------0----0---0--0--2-------------------------------|
E|------------------0----------------------0-------------------------------|

e|--------0---------3-0----0-----3-3---------------------------------------|
B|--------4b3------------4-----------3-0-3b5r------------------------------|
G|-------------------------------------------------------------------------|
D|---2---------------------------------------------------------------------|
A|---2---------------------------------------------------------------------|
E|---0---------------------------------------------------------------------|

e|-------------------------------------------------------------------------|
B|-------------------------------------------------------------------------|
G|-------------------------------------------------------------------------|
D|---2----5---5--5--2-------5----5---5--5--2-------------------------------|
A|---2----5---5--5--2-------5----5---5--5--2-------------------------------|
E|---0----3---3--3--0-------3----3---3--3--0-------------------------------|

e|------------------------------------------3-3-3-3-3----------------------|
B|------------------------------------------2-2-2-2-2----------------------|
G|---4---4---4-4--4--4--4---------2---2-----2-2-2-2-2----------------------|
D|---4---4---4-4--4--4--4---------2---2-----2-2-2-2-2----------------------|
A|---2---2---2-2--2--2--2---------0---0------------------------------------|
E|-------------------------------------------------------------------------|

(Order for the rest of the song)

Chorus (Repeat 1x)
Verse  (Repeat 1x)
Below  (Repeat 8x) 
e|-------------------------------------------------------------------------|
B|-------------------------------------------------------------------------|
G|-------------------------------------------------------------------------|
D|---2----5---5--5--2-------5----5---5--5--2-------------------------------|
A|---2----5---5--5--2-------5----5---5--5--2-------------------------------|
E|---0----3---3--3--0-------3----3---3--3--0-------------------------------|


| /    slide up
| \    slide down
| h    hammer-on
| p    pull-off
| ~    vibrato
| +    harmonic
| x    Mute note
| 3b5r Bend then release to orginal note
===========================================================================

            
            
Suggest correction
Creating personal tab
Creating personal tab
You can edit any tab online and save it as your Personal.

You can edit, replace or remove any tab part or add personal notes – all changes will be seen only by you.

Personal tabs can be accessed anytime from any device, even offline.
Learn more »
comments
print report bad tab
5 comments total. Showing first comments.
0 reply
ryan_nadon 10 Oct 24, 2008 04:00 PM

great tab, man.

0 reply
ZanasCross 700 Jan 05, 2009 09:17 AM

Fantastic.

0 reply
Ledzepjunkie88 10 Jan 27, 2009 12:36 PM

sounds good to me.

guest
You may want to rate the tab now too:
select rating
Wanna post a correction for this tab? Suggest correction