Oops, an error
Loading. Please wait.

I Cant Wait tab

version 5
version 5
4,445 views 3 this week
4 commentsread comments
1 2 3 4 5
x 5
add to favorites
×
Save as Personal and add changes to this tab that will be seen only by you. Learn more ›
×
You can save this tab as Personal to edit and correct it or add notes. All changes will be seen only by you. Learn more »
launch autoscroll
font size
0
reset
how to read this tab
guitar tuner
edit
Autoscroll
slow
fast
+/-
esc
set tempo
stop
White Stripes
I Can't Wait
From the album "White Blood Cells"

Intro/Verse: (Have a warm but slightly overdriven tone)

E|-----------------|-----------------|-----------------------------|
B|-----------------|-----------------|-----------------------------|
G|--------4--------|-----------------|-----------------------------|
D|-----4-----4--0--|--------5--------|--------7--------------7-----|
A|--2--------------|-----5-----5--0--|-----7-----7-----7--------7--|
E|-----------------|--3--------------|--5-----------5-----5--------|

I can't wait 'til you try to come back girl,
When things they don't work out for you,
Who do you think you're messing with girl?

Pre-chorus:


E|-----------------|-----------------|-----|------|--------------------|
B|-----------------|-----------------|-----|------|--------------------|
G|--------4--------|-----------------|-----|------|--x--x--x--x--x--x--|
D|-----4-----4--0--|--------5--------|--7--|--7*--|--x--x--x--x--x--x--|
A|--2--------------|-----5-----5--0--|--7--|--7*--|--x--x--x--x--x--x--|
E|-----------------|--3--------------|--5--|--5*--|--x--x--x--x--x--x--|
    What do you       think you're...     do?          Oh yeah yeah yeah...

*- tone of chord goes to clean for chorus.

Chorus:

E|--------------|--------------|--------|--------------------|
B|--------------|--------------|--------|--------------------|
G|--------------|--------------|--------|--x--x--x--x--x--x--|
D|--4--4--4--4--|--5--5--5--5--|--7--7--|--x--x--x--x--x--x--|
A|--4--4--4--4--|--5--5--5--5--|--7--7--|--x--x--x--x--x--x--|
E|--2--2--2--2--|--3--3--3--3--|--5--5--|--x--x--x--x--x--x--|
    Who do you     think...         with...    Oh yeah yeah yeah...

What do you think you're trying to do? (Oh yeah yeah yeah)
Do you really think I wanna live like that girl? (Oh yeah yeah yeah)
Who do you think you're trying to fool? 

Bridge:

E|-----------------------------------------------------------------|
B|-----------------------------------------------------------------|
G|-----------------------------------------------------------------|
D|--4--4--4--4--4--4--4--4--4--4--4--4--4--4--4--4--4--4--4--4--4--|
A|--4--4--4--4--4--4--4--4--4--4--4--4--4--4--4--4--4--4--4--4--4--|
E|--2--2--2--2--2--2--2--2--2--2--2--2--2--2--2--2--2--2--2--2--2--|
    First you said I was blind, it's gonna be different this time...

E|--------------------|--------------------------------------|.|
B|--------------------|--------------------------------------|.|
G|--------------------|--------------------------------------|.|
D|--5--5--5--5--5--5--|--7--7--7--7--7--7--7--7--7--7--7--7--|.|
A|--5--5--5--5--5--5--|--7--7--7--7--7--7--7--7--7--7--7--7--|.|
E|--3--3--3--3--3--3--|--5--5--5--5--5--5--5--5--5--5--5--5--|.|
                         I thought you'd made up your mind...
  
E|--------------------|----------------------------|
B|--------------------|----------------------------|
G|--------------------|----------------------------|
D|--5--5--5--5--5--5--|--7--7-------7-----5----7---|
A|--5--5--5--5--5--5--|--7--7-------7-----5----7---|
E|--3--3--3--3--3--3--|--5--5-------5-----3----5---|
                 ...oh     I  thought you'd made up...

Outro:

Guitar One:

E|--------------|--------------|--------------|--------------|
B|--------------|--------------|--------------|--------------|
G|--------------|--------------|--------------|--------------|
D|--9--9--9--9--|--5--5--5--5--|--7--7--7--7--|--5--5--5--5--|
A|--9--9--9--9--|--5--5--5--5--|--7--7--7--7--|--5--5--5--5--|
E|--7--7--7--7--|--3--3--3--3--|--5--5--5--5--|--3--3--3--3--|

Guitar Two:

E|--------------|--------------|---------------|--------------|
B|--------------|--------------|---------------|--------------|
G|--------------|--------------|---------------|--------------|
D|--------------|--------------|---------------|--------------|
A|--2--2--2--2--|--------------|--0--0--0--0---|--------------|
E|--------------|--3--3--3--3--|---------------|--3--3--3--3--|

 Additional song lyrics:

1. I can't wait 'til you try to come back girl,
   When things they don't work out for you
   Who do you think you're messing with girl?
   What do you think you're trying to do?
   Oh yeah yeah yeah

C. Who do you think you're messing with girl? (Oh yeah yeah yeah)
   What do you think you're trying to do? (Oh yeah yeah yeah)
   Do you really think I wanna be like that girl? (Oh yeah yeah yeah)
   Who do you think you're trying to fool?

B. First you said I was blind,
   Well it's gonna be different this time.
   I thought you'd made up your mind.
   I thought you'd made up...
   I thought you'd made up your mind.
 
2. So many times I've gotten used to this,
   This old idea of being all alone
   Tell me how I'm supposed to get through with this,
   I wish this house felt like a home.
   Oh yeah yeah yeah

            
            
Suggest correction
Creating personal tab
Creating personal tab
You can edit any tab online and save it as your Personal.

You can edit, replace or remove any tab part or add personal notes – all changes will be seen only by you.

Personal tabs can be accessed anytime from any device, even offline.
Learn more »
comments
print report bad tab
4 comments total. Showing first comments.
0 reply
feesk8ordie 1,082 Jan 27, 2005 07:00 PM

i swear this tab is accurate

0 reply
Underrated 190 Nov 25, 2005 10:43 AM

I don't think this is in the right key

0 reply
dcp1191 10 Jul 21, 2006 09:56 AM

The chords that it's supossed to be aren't B, G, then A. It's A F G.
intro
A5 F G
----------------------------------------------------------------------------|
----------------------------------------------------------------------------|
------2---------------------------------------------0-------------0---------|
---2-----2--0------------3------------------0--------------0---------0------|x2
-0------------------3--------3---------2---------2-----------2----------2---|
---------------1---------------/3-----------------------------------------0-|

Note: I took this from the Version 4 tab of this song.

guest
You may want to rate the tab now too:
select rating
Wanna post a correction for this tab? Suggest correction