Oops, an error
Loading. Please wait.

Icky Thump bass

version 1
version 1

Whole song

41,557 views 30 this week
31 commentsread comments
1 2 3 4 5
x 27
add to favorites
×
Save as Personal and add changes to this tab that will be seen only by you. Learn more ›
×
You can save this tab as Personal to edit and correct it or add notes. All changes will be seen only by you. Learn more »
launch autoscroll
font size
0
reset
guitar tuner
edit
Autoscroll
slow
fast
+/-
esc
set tempo
stop
Main Riff
G|-----------------------|
D|-----------------------|
A|-----------------------|
E|--0--0--0--0--0--0—3-5-|


Chorus riff (it sounds better to actually sit the first couple lines out, and join in with the drums)
G|--------------------------------|
D|-7--5--4--0---------------------|
A|-------------5--4--0------------|
E|------------------------0--3--0-|

G|-------------7--6---------------|
D|-7--5--4--0--------7------------|
A|--------------------------------|
E|------------------------0--3--0-|

G|--------------------------------|
D|-7--5--4--0---------------------|
A|-------------5--4--0------------|
E|------------------------0--3--0-|

G|--------------------------------|
D|-7--5--4--0---------------------|
A|--------------5--7--5--7--------|
E|---------------------------0----|

Interlude after 2nd chorus
G|------------------|
D|------------------|
A|-54--76--87--109--|
E|---5---7---8----9-|

            
            
Suggest correction
Creating personal tab
Creating personal tab
You can edit any tab online and save it as your Personal.

You can edit, replace or remove any tab part or add personal notes – all changes will be seen only by you.

Personal tabs can be accessed anytime from any device, even offline.
Learn more »
comments
print report bad tab
31 comments total. Showing first comments. show 2 bad comments
0 reply
Bert_Hastings 179 Jun 19, 2007 06:33 PM

of course theres no bass player. everybody knows that. but guitarists love playing white stripes music. and if they're going to play it, the bass needs something to play. not to mention, the bass can play the main riff while the guitar imitates the synth part of the song.

guest
You may want to rate the tab now too:
select rating
Wanna post a correction for this tab? Suggest correction