Oops, an error
Loading. Please wait.

Im Finding It Harder To Be A Gentleman tab

version 1
version 1

Whole song

Interactive

15,373 views 12 this week
3 commentsread comments
1 2 3 4 5
x 10
add to favorites
×
Save as Personal and add changes to this tab that will be seen only by you. Learn more ›
×
You can save this tab as Personal to edit and correct it or add notes. All changes will be seen only by you. Learn more »
launch autoscroll
font size
0
reset
how to read this tab
guitar tuner
edit
Autoscroll
slow
fast
+/-
esc
set tempo
stop
Author
Difficulty
---------------------------------------------------------------------
Finding it harder to be a gentleman – White Stripes
---------------------------------------------------------------------
Tabbed by: Rocktarcb
Email:

Tuning: normal

Verse

e|--------------------------------------------------------------------|
B|--------------------------------------------------------------------|
G|--------------------------------------------------------------------|
D|---5--5--8---3---5-5-----5-5----8-8---3-3---5-5---5-5--3------------|
A|---5--5--8---3---5-5-----5-5----8-8---3-3---5-5---5-5--3------------|
E|---3--3--6---1---3-3---1/3-3----6-6---1-1---3-3—1/3-3--1------------|

gap

Repeatx5
e|----|---------------------------------------------------------------|
B|----|---------------------------------------------------------------|
G|----|---------------------------------------------------------------|
D|---5|-5-8--3-3---8-8-8-8-7-5-5--------------------------------------|
A|---5|-5-8--3-3---8-8-8-8-7-5-5--------------------------------------|
E|---3|-3—6--1-1—--6-6-6-6-5-3-3--------------------------------------|x2

X2

e|--------------------------------------------------------------------|
B|--------------------------------------------------------------------|
G|---5-------------3----------------------3------------5--------------|
D|---5-------------3--------------5-------3------------5--------------|
A|---3-------------1--------------5-------1------------3--------------|
E|--------------------------------3-----------------------------------|
Maybe its whatever…

e|--------------------------------------------------------------------|
B|--3-3-3-3-3-3-3-3-3-3-3-0-------------------------------------------|
G|--2-2-------2-2-2-2-2-2-0-------------------------------------------|
D|--------------------------------------------------------------------|
A|--------------------------------------------------------------------|
E|--------------------------------------------------------------------|
Bend all notes slightly

On the 3rd/4th time around it is very loose, with mute notes and open strings.

Finish on an open c chord.


| / slide up
|  slide down
| h hammer-on
| p pull-off
| ~ vibrato
| + harmonic
| x Mute note
================================

            
            
Suggest correction
Creating personal tab
Creating personal tab
You can edit any tab online and save it as your Personal.

You can edit, replace or remove any tab part or add personal notes – all changes will be seen only by you.

Personal tabs can be accessed anytime from any device, even offline.
Learn more »
comments
print report bad tab
3 comments total.
0 reply
100%guitarmad 489 Aug 22, 2007 05:38 AM

u dont finish on a c, but apart from that, really good

+1 reply
xiempie 83 Aug 09, 2009 08:54 AM

you end with a G, but indeed very good tab 5*

0 reply
kuraman 10 Dec 29, 2010 12:02 PM

hay great work i actually find it easier to play the a# not on the 6th fret during the chorus but just below the F it just makes for less movement but then i go back and play it on the 6th to make it easy to go to the A

guest
You may want to rate the tab now too:
select rating
Wanna post a correction for this tab? Suggest correction