Oops, an error
Loading. Please wait.
We have an official Im Slowly Turning Into You tab made by UG professional guitarists. Check out the tab »
×
4,520 views 1 this week
no commentswrite comment
1 2 3 4 5
x 3
add to favorites
×
Save as Personal and add changes to this tab that will be seen only by you. Learn more ›
×
You can save this tab as Personal to edit and correct it or add notes. All changes will be seen only by you. Learn more »
launch autoscroll
font size
0
reset
how to read this tab
guitar tuner
edit
Autoscroll
slow
fast
+/-
esc
set tempo
stop
I'm Slowly Turning Into You
The White Stripes
Icky Thump

I am going to tell you right off the bat that I don't have the mid song solo part 
out yet. I'll update this once I figure it out.

Intro and Verse:
E------------------------------------------|
B------------------------------------------|
G------------------------------------------|
D--5--------------3-3----------------------|
A--5--------------3-3----------------------|
E--3--------------1-1----------------------|

Chorus Riff:

There are two ways that I play this. Pick the one that you think sounds better.

Version 1:

E------------------------------------------|
B------------------------------------------|
G------------------------------------------|
D------------------------------------------|
A--------5---0h5-3---0h3-1--10-------------|
E-3---0h3----------------------------------|

Version 2


E------------------------------------------|
B------------------------------------------|
G--------7---77-5---55-3--32---------------|
D-5---55-7---77-5---55-3--32---------------|
A-5---55-5---55-3---33-1--10---------------|
E-3---33-----------------------------------|

h = hammer on.

Again, sorry for the lack of solo, but just know, that as soon as I figure it out, I'll 
it

            
            
Suggest correction
Creating personal tab
Creating personal tab
You can edit any tab online and save it as your Personal.

You can edit, replace or remove any tab part or add personal notes – all changes will be seen only by you.

Personal tabs can be accessed anytime from any device, even offline.
Learn more »
Give kudos to tab author, rate the tab!
1 2 3 4 5
comments
print report bad tab
guest
Wanna post a correction for this tab? Suggest correction