Oops, an error
Loading. Please wait.
We have an official Seven Nation Army tab made by UG professional guitarists. Check out the tab »
×

Seven Nation Army tab

version 6
version 6

Whole song

Video

13,890 views 33 this week
5 commentsread comments
1 2 3 4 5
x 9
add to favorites
×
Save as Personal and add changes to this tab that will be seen only by you. Learn more ›
×
You can save this tab as Personal to edit and correct it or add notes. All changes will be seen only by you. Learn more »
launch autoscroll
font size
0
reset
how to read this tab
guitar tuner
backing track
0:00
0:00
edit
Autoscroll
slow
fast
+/-
esc
set tempo
stop
Author
-------------------------------------------------------------------------------
                             Seven Nation Army - The White Stripes
-------------------------------------------------------------------------------

Tuning: Open A w/ low B instead of E
B A E A C# e

Verse Riff:
e |--------------------|
C#|--------------------|
A |--------------------| x 12
E |--------------------|
A |--------------------|
B |-5--5-8--5--3--1--0-|

Lead in to (and lead out of) chorus:
e |-----------------|-0-0-0-0-0-0-0-0-|
C#|-----------------|-0-0-0-0-0-0-0-0-|
A |-----------------|-0-0-0-0-0-0-0-0-|
E |-5-5-5-5-5-5-5-5-|-0-0-0-0-0-0-0-0-|
A |-5-5-5-5-5-5-5-5-|-0-0-0-0-0-0-0-0-|
B |-8-8-8-8-8-8-8-8-|-----------------|

Chorus (play with bottleneck slide):
e |-----------------|------------------------|
C#|-7--7-10-7-5-3-2-|-7--7-10-7-5-3-5-3-2--0-|
A |-7--7-10-7-5-3-2-|-7--7-10-7-5-3-5-3-2--0-|
E |-7--7-10-7-5-3-2-|-7--7-10-7-5-3-5-3-2--0-| x 2
A |-7--7-10-7-5-3-2-|-7--7-10-7-5-3-5-3-2--0-|
B |-----------------|------------------------|

The solo you can steal from another tab.


| /  slide up
| \  slide down
| h  hammer-on
| p  pull-off
| ~  vibrato
| +  harmonic
| x  Mute note

===============================================================================

            
            
Suggest correction
Creating personal tab
Creating personal tab
You can edit any tab online and save it as your Personal.

You can edit, replace or remove any tab part or add personal notes – all changes will be seen only by you.

Personal tabs can be accessed anytime from any device, even offline.
Learn more »
comments
print report bad tab
5 comments total. Showing first comments.
0 reply
Phantom Jester 40 Jun 15, 2003 08:00 PM

chorus is right i think but the verse riff is wrong

0 reply
greeney 80 Jun 24, 2003 08:00 PM

this tab is absoluetely terrible. the tuning is off. the 5 star version is the right.

0 reply
guitar_freak333 40 Jul 28, 2003 08:00 PM

sorry but the begenning isn't even on 1st string it's on 2 and it goes
6|
5|
4|
3|
2|--7-7-10-7-5-3-2
1|

guest
You may want to rate the tab now too:
select rating
Wanna post a correction for this tab? Suggest correction