Oops, an error
Loading. Please wait.
We have an official Seven Nation Army tab made by UG professional guitarists. Check out the tab »
×

Seven Nation Army ukulele

3,994 views 132 this week
4 commentsread comments
1 2 3 4 5
x 15
add to favorites
×
Save as Personal and add changes to this tab that will be seen only by you. Learn more ›
×
You can save this tab as Personal to edit and correct it or add notes. All changes will be seen only by you. Learn more »
launch autoscroll
font size
0
reset
transpose
0
reset
simplify chords
display chords
guitar tuner
backing track
0:00
0:00
edit
Autoscroll
slow
fast
+/-
esc
set tempo
stop
Author
Difficulty
About this tab version
Includes bass line tabbed for uke. Was this info helpful? Yes No
Strumming Are these strumming patterns correct? Yes No
Verses and Bridges 120 bpm
1
 
&
 
2
 
&
 
3
 
&
 
4
 
&
 
5
 
&
 
6
 
&
 
7
 
&
 
8
 
&
 
Listen
Intro to Bridge 120 bpm
1
&
2
&
3
&
4
&
5
&
6
&
7
&
8
&
Listen
It's easier to switch the riffs and the chords, since the C - D/C - C movement during the bridge is 
pretty tricky, but I tabbed it true to the original song. Play it however feels best.

D/C: 2225


[Verse 1]

{Riff 1} 
  1 + 2 + 3 + 4 + 5 + 6 + 7 + 8 +
A|7-----7-10--7--5-3-------2------|
E|--------------------------------|
C|--------------------------------|
G|--------------------------------|

I'm gonna fight 'em off,
A seven nation army couldn't hold me back.
They're gonna rip it off,
Taking their time right behind my back.
And I'm talking to myself at night because I can't forget.
Back and forth through my mind, behind a cigarette.

[Bridge]
        G                       A
And the message coming from my eyes, says leave it alone.

E E G E D C B
E E G E D C D/C C B 
X2


[Verse 2]

{Riff 1} 
  1 + 2 + 3 + 4 + 5 + 6 + 7 + 8 +
A|7-----7-10--7--5-3-------2------|
E|--------------------------------|
C|--------------------------------|
G|--------------------------------|

Don't want to hear about it,
Every single one's got a story to tell.
Everyone knows about it,         
From the Queen of England to the hounds of hell.
And if I catch you coming back my way,
I'm going to serve it to you.
And that ain't what you want to hear, but that's what I'll do.

[Bridge]
        G                      A
And the feeling coming from my bones says "find a home."

E E G E D C B
E E G E D C D/C C B 
X2

[Verse 3]

{Riff 1} 
  1 + 2 + 3 + 4 + 5 + 6 + 7 + 8 +
A|7-----7-10--7--5-3-------2------|
E|--------------------------------|
C|--------------------------------|
G|--------------------------------|

I'm going to Witchita,
Far from this opera forever more.
I'm going to work the straw,
Make the sweat drip out of every pore.
And I'm bleedin', and I'm bleedin',
And I'm bleeding right before my Lord.
All the words are going to bleed from me,
And I will think no more.

[Bridge]
G                              A
And the stains coming from my blood, says go back home.

[Solo]
{Riff 1}
  1 + 2 + 3 + 4 + 5 + 6 + 7 + 8 +
A|7-----7-10--7--5-3-------2------|
E|--------------------------------|
C|--------------------------------|
G|--------------------------------|

{Riff 2}
  1 + 2 + 3 + 4 + 5 + 6 + 7 + 8 +
A|7-----7-10--7--5-3--5--3-2------|
E|--------------------------------|
C|--------------------------------|
G|--------------------------------|

{Riff 1}
  1 + 2 + 3 + 4 + 5 + 6 + 7 + 8 +
A|7-----7-10--7--5-3-------2------|
E|--------------------------------|
C|--------------------------------|
G|--------------------------------|

{Riff 3}
  1 + 2 + 3 + 4 + 5 + 6 + 7 + 8 +
A|7-----7-10--7--7-10--12-10-9----|
E|--------------------------------|
C|--------------------------------|
G|--------------------------------|

            
            
Suggest correction
Creating personal tab
Creating personal tab
You can edit any tab online and save it as your Personal.

You can edit, replace or remove any tab part or add personal notes – all changes will be seen only by you.

Personal tabs can be accessed anytime from any device, even offline.
Learn more »
comments
print report bad tab
4 comments total. Showing first comments.
+6 reply
izzythestick 10 May 30, 2017 11:39 AM

Spicy

+3 reply
leopardgirl081 10 Sep 03, 2017 03:00 PM

Zesty

+1 reply
Liv_Pico1015 20 Oct 15, 2017 08:43 PM

Lemony

guest
You may want to rate the tab now too:
select rating
Wanna post a correction for this tab? Suggest correction