Oops, an error
Loading. Please wait.

We Are Going To Be Friends bass

version 1
version 1

Whole song

Interactive

7,492 views 1 this week
3 commentsread comments
1 2 3 4 5
x 5
add to favorites
×
Save as Personal and add changes to this tab that will be seen only by you. Learn more ›
×
You can save this tab as Personal to edit and correct it or add notes. All changes will be seen only by you. Learn more »
launch autoscroll
font size
0
reset
guitar tuner
edit
Autoscroll
slow
fast
+/-
esc
set tempo
stop
Author
Difficulty
-------------------------------------------------------------------------------
		We’re Going to be Friends– The White Stripes
-------------------------------------------------------------------------------

Tabbed By: Aaron Monina
E-mail: mmonina@hotmail.com

Intro:
G|---------------------------------------------------------------------------|
D|---------------------------------------------------------------------------|
A|---10-10-10-10-10-10-10-10-------------------------------------------------|
E|---------------------------------------------------------------------------|
Verse 1:
G|---------------------------------------------------------------------------|
D|---------------------------10-10-10-10-------------12-12-10-10-------------|
A|---10-10-10-10-10-10-10-10-------------10-10-10-10-------------10-10-10-10-|
E|---------------------------------------------------------------------------|

G|---------------------------------------------------------------------------|
D|---12-12-10-10-------------------------------------------------------------|
A|---------------10-10-10-10-------------------------------------------------|
E|---------------------------------------------------------------------------|
Verse 2:
G|---------------------------------------------------------------------------|
D|---------------------------10-10-10-10-------------10-10-10-10-------------|
A|---10-10-10-10-10-10-10-10-------------10-10-10-10-------------10-10-10-10-|
E|---------------------------------------------------------------------------|

G|---------------------------------------------------------------------------|
D|---------------------------10-10-10-10-12-12-12-12-------------------------|
A|---12-12-12-12-12-12-12-12-------------------------------------------------|
E|---------------------------------------------------------------------------|
Ending:
G|---------------------------------------------------------------------------|
D|---------------------------10-10-10-10-------------12-12-10-10-------------|
A|---10-10-10-10-10-10-10-10-------------10-10-10-10------------10-10-10-10--|
E|---------------------------------------------------------------------------|

G|---------------------------------------------------------------------------|
D|---12-12-10-10-------------12-12-10-10-------------------------------------|
A|---------------10-10-10-10-------------10-10-10-10-------------------------|
E|---------------------------------------------------------------------------|


Intro x 1
Verse 1 x 4
Verse 2 x 1
Ending x 1


            
            
Suggest correction
Creating personal tab
Creating personal tab
You can edit any tab online and save it as your Personal.

You can edit, replace or remove any tab part or add personal notes – all changes will be seen only by you.

Personal tabs can be accessed anytime from any device, even offline.
Learn more »
comments
print report bad tab
3 comments total. show 1 bad comment
+4 reply
barb3rman 111 Nov 24, 2008 11:54 AM

We know...but it's still fun to play, idiot.

0 reply
NipBiff 10 Feb 07, 2010 12:09 AM

Well i liked it :D
Sounds cute :]

guest
You may want to rate the tab now too:
select rating
Wanna post a correction for this tab? Suggest correction