Oops, an error
Loading. Please wait.

1517 bass

version 1
version 1

Whole song

Interactive

10,474 views 33 this week
no commentswrite comment
1 2 3 4 5
x 7
add to favorites
×
Save as Personal and add changes to this tab that will be seen only by you. Learn more ›
×
You can save this tab as Personal to edit and correct it or add notes. All changes will be seen only by you. Learn more »
launch autoscroll
font size
0
reset
guitar tuner
edit
Autoscroll
slow
fast
+/-
esc
set tempo
stop
Author
Difficulty
-------------------------------------------------------------------------------
                             1517 - The Whitest Boy Alive
-------------------------------------------------------------------------------

Tabbed By : Dudy78

I just saw that there was no bass tab for this awesome song, so I decided to write 
my own. I did my best but I guess it's not quite perfect since I'm a beginner in 
bass playing. Feel free to correct if you see any mistake. Have fun !

Tuning: Standard

[Intro]
G|-------------------------------|-------------------------------------|
D|-44--22------------------------|-0/44--22----------------------------|
A|---------55--44--022-02-4-2202-|-----------55--044--022-02--4-22020--|
E|-------------------------------|-----------------------------------2-|

G|--------------------------------|---------------------44/6-44242---|
D|-44-----------------------------|-44----------------------------42-|
A|-----44--55--44-22-02-4-22-02-4-|-----44--55--44--22-0-------------|
E|--------------------------------|----------------------------------|

[Verse #1]
G|-------------------------------|-----------------------------------|
D|-44--22------------------------|-0/44--22--------------------------|
A|---------55--44--022-02-4-2202-|-----------55--44-022-02-4-22-02-4-|
E|-------------------------------|-----------------------------------|

G|----------------------------------|-------------66--44-----44-242--|
D|-44-----------------------------2-|-44-----------------4-4-------4-|
A|-----44--55--44-022-02-4-22-0245--|-----44--55----------2----------|
E|----------------------------------|--------------------------------|

[Whatever this is]
G|--------------------------------|----------------|
D|--------------------------------|----------------|
A|-5~--4-5454-5-7-99-799-799-7994-|-5~--4-5454-5-7-|
E|--------------------------------|----------------|

G|----44---------|----44---------|-----------------------------|
D|-------44-44-2-|-------4467642-|-------44-44-2-44---44-4---2-|
A|-55------------|-55------------|-55-22-----------4-4----245--|
E|---------------|---------------|------------------2----------|


[Verse #2]
G|-----------------------------------|-----------------------------------|
D|-44--22--------------------------2-|-44--22------------------------16/-|
A|---------55--44--022-02-4-22-0245--|---------55--44-022-02-4-22-02-----| 
E|-----------------------------------|-----------------------------------|

G|---------------------------------|-------------66--44-----44-242--|
D|-44----------------------------2-|-44-----------------4-4-------4-|
A|-----44--55--44-22-02-4-22-0245--|-----44--55----------2----------|
E|---------------------------------|--------------------------------|


[Whatever this is #2]
G|--------------------------------|-------------------------------|
D|--------------------------------|-------------------------------|
A|-5~--4-5454-5-7-99-799-799-7994-|-5~--4-5454-5-7-99-799---------|
E|--------------------------------|-----------------------755-455-|

G|-------------------------------------------------------|
D|------------------------77-679111212121211111111-------|
A|-5~--4-5454-5-7-99-799-7------------------------12~/-5-|
E|-------------------------------------------------------|


[Bridge] Play this REALLY fast
G|-75------|   |-75----|   |-75-------|
D|---75----|   |---75--|   |---75---2-|
A|-----745-|   |-----7-|   |-----245--|
E|---------|x2 |-------|x3 |----------|


[Outro]
G|-------------------------------|---------------------------------|
D|-44--22------------------------|-0/44--22------------------------|
A|---------55--44--022-02-4-2202-|-----------55--44-022-02-4-22-02-|
E|-------------------------------|---------------------------------|

G|------------------------------------|-------------66--44-----44-242--|
D|-0/44-----------------------------2-|-44-----------------4-4-------4-|
A|-------44--55--44-022-02-4-22-0245--|-----44--55----------2----------|
E|------------------------------------|--------------------------------| x2 & fade out

            
            
Suggest correction
Creating personal tab
Creating personal tab
You can edit any tab online and save it as your Personal.

You can edit, replace or remove any tab part or add personal notes – all changes will be seen only by you.

Personal tabs can be accessed anytime from any device, even offline.
Learn more »
comments
print report bad tab
guest
You may want to rate the tab now too:
select rating
Wanna post a correction for this tab? Suggest correction