Oops, an error
Loading. Please wait.

Burning bass

version 1
version 1

Whole song

Interactive

33,859 views 48 this week
1 commentread comment
1 2 3 4 5
x 12
add to favorites
×
Save as Personal and add changes to this tab that will be seen only by you. Learn more ›
×
You can save this tab as Personal to edit and correct it or add notes. All changes will be seen only by you. Learn more »
launch autoscroll
font size
0
reset
guitar tuner
edit
Autoscroll
slow
fast
+/-
esc
set tempo
stop
Author
Difficulty
intermediate
Tuning: Standard (E A D G)
Meter: 4/4
Tempo: 150BPM

[Intro] 
(0:00)
G|--------------------------------------|
D|12/5-5-54/2-2-2-220-------------------|
A|--------------------2-2-24--5-5-5-54--|
E|------------------------------------5-|  

G|-----------------------------------|
D|5-5-54-2-2-2-220-------------------|
A|-----------------2-2-24--5-5-5-54--|
E|---------------------------------5-| 

G|-----------------------------------|
D|-------2-2-2-220-------------------|
A|-----------------2-2-24--5-5-5-54--|
E|3-3-32---------------------------5-| 

G|-----------------------------------|
D|-------2-2-2-024-------------------|
A|-----------------2-2-24--5-5-5-54--|
E|3-3-32---------------------------5-|

[Verse] 
(0:29)
G|-----------------------------------|
D|---------2-22-220------------------|
A|------------------2-22-220-5-55-550| (x2)
E|3-33-332---------------------------| 

G|---------------------------7-77-777|
D|5-55-555-7-77-777-9-99-999---------|
A|-----------------------------------|
E|-----------------------------------|  

G|-----------------------------------|
D|5-55-554-2-22-220------------------|
A|------------------2-22-220-5-55-550|
E|-----------------------------------|  

[Chorus] 
(0:54)
G|-----------------------------------|
D|5-5-54/2-2-2-220-------------------|
A|-----------------2-2-24--5-5-5-54--| (x2)
E|---------------------------------5-|  

G|-----------------------------------|
D|-------2-2-2-220-------------------|
A|-----------------2-2-24--5-5-5-54--|
E|3-3-32---------------------------5-| 

G|-----------------------------------|
D|-------2-2-2-024-------------------|
A|-----------------2-2-24--5-5-5-54--|
E|3-3-32---------------------------5-|  

[Verse] 
(1:19) 
(and bridge 1:45 into instrumental fill)
G|-----------------------------------|
D|---------2-22-220------------------|
A|------------------2-22-220-5-55-550| (x8)
E|3-33-332---------------------------| 

[Instrumental fill] 
(2:10)
G|-----------------------------------|
D|5-5-54/2-2-2-220-------------------|
A|-----------------2-2-24--5-5-5-54--| (x2)
E|---------------------------------5-|  

G|-----------------------------------|
D|-------2-2-2-220-------------------|
A|-----------------2-2-24--5-5-5-54--|
E|3-3-32---------------------------5-| 

G|-----------------------------------|
D|-------2-2-2-024-------------------|
A|-----------------2-2-24--5-5-5-54--|
E|3-3-32---------------------------5-|  

[Outro] 
(2:36)
G|--------------------------7-7-7-77|
D|5-5-54--7-7-7-777-9-9-999---------|
A|------7---------------------------|
E|----------------------------------|  

G|----------------------------------|
D|5-5-54--7-7-7-777-9-9-999-4-4-4-44|
A|------7---------------------------|
E|----------------------------------|  

G|--------------------------7-7-7-77|
D|5-5-54--7-7-7-777-9-9-999---------|
A|------7---------------------------|
E|----------------------------------|  

G|-----------------------7-77-99-11-4|
D|2-2-222-5-5-5579-9-999-------------|
A|-----------------------------------|
E|-----------------------------------|


************************************

| /  Slide up

************************************

            
            
Suggest correction
Creating personal tab
Creating personal tab
You can edit any tab online and save it as your Personal.

You can edit, replace or remove any tab part or add personal notes – all changes will be seen only by you.

Personal tabs can be accessed anytime from any device, even offline.
Learn more »
comments
print report bad tab
1 comment total.
0 reply
AkaPinto 10 3 days ago

'Thanks for a kickass tab!'

guest
You may want to rate the tab now too:
select rating
Wanna post a correction for this tab? Suggest correction