Oops, an error
Loading. Please wait.

Fireworks solo tab

version 1
version 1

Solo

Whole song

5,346 views 3 this week
1 commentread comment
1 2 3 4 5
x 5
add to favorites
×
Save as Personal and add changes to this tab that will be seen only by you. Learn more ›
×
You can save this tab as Personal to edit and correct it or add notes. All changes will be seen only by you. Learn more »
launch autoscroll
font size
0
reset
how to read this tab
guitar tuner
edit
Autoscroll
slow
fast
+/-
esc
set tempo
stop
Author
Fireworks' Solo by The Whitest Boy Alive

Tabbed by: Frank Truei
Email: Brokensword421@hotmail.com


TUNING: Standard

e|------------------------------|
B|------------------------------|
G|-----13---------12------------|
D|11------11-10------10-8---8/10|
A|------------------------------|
E|------------------------------|

e|------------------------------|
B|------------------------------|
G|-----13-----------------------|
D|11------11-10--11-13-15---15--|
A|------------------------------|
E|------------------------------|

e|------------------------------|
B|------------------------------|
G|--------17-------15-----------|
D|-15---15--15-13----13-------11|
A|---------------------13---13--|
E|------------------------------|

e|------------------------------|
B|--------------------18--------|
G|---------17-------15----------|
D|--15---15--15-13--------------|
A|------------------------------|
E|------------------------------|



            
            
Suggest correction
Creating personal tab
Creating personal tab
You can edit any tab online and save it as your Personal.

You can edit, replace or remove any tab part or add personal notes – all changes will be seen only by you.

Personal tabs can be accessed anytime from any device, even offline.
Learn more »
comments
print report bad tab
1 comment total.
0 reply
nationaljam 10 Aug 17, 2010 05:58 PM

Pretty close- 3rd string should stay on the 13th fret in the first bar

e|------------------------------|
B|------------------------------|
G|-----13---------13------------|
D|11------11-10------10-8---8/10|
A|------------------------------|
E|------------------------------|

guest
You may want to rate the tab now too:
select rating
Wanna post a correction for this tab? Suggest correction