Oops, an error
Loading. Please wait.
We have an official Baba Oriley tab made by UG professional guitarists. Check out the tab »
×
by The Who
5,750 views 3 this week
6 commentsread comments
1 2 3 4 5
x 6
add to favorites
×
Save as Personal and add changes to this tab that will be seen only by you. Learn more ›
×
You can save this tab as Personal to edit and correct it or add notes. All changes will be seen only by you. Learn more »
launch autoscroll
font size
0
reset
guitar tuner
backing track
0:00
0:00
edit
Autoscroll
slow
fast
+/-
esc
set tempo
stop
Author
Difficulty
Alright, this song pretty much repeats itself and rests here and there. 
I'm gonna try my best to work it out as it goes. I just now figured it out
playing around and did it accidentally. 

At :42                               Repeat 
G|---------------------------------------------------------------------------|
D|---------------------------------------------------------------------------|
A|---------3-1---------------3-1---------------------------------------------|
E|-1-----------------1-------------------------------------------------------|

At 2:08                         Pause                 Repeat First Line
G|---------------------------------------------------------------------------|
D|---------------------------------------------------------------------------|
A|--3---------3----------3--------------------------------------3-1----------|
E|---------------------------------------------------1-----------------------|

Guitar Solo x3 
*not 100% sure this is correct, but it is close* 
then repeat the first part until 3:31
G|----------------------------------|
D|----------------------------------|
A|------1-3--1----------------------|
E|-1--------------------------------|

Then Play this after solo and repeated part. *3:31* And dont' Hold any notes out
even though they are spaced. play for one count and hold, except at 3:35 hold
these notes out. Then just go back and forth here with 1-1-3-1-1 until 4:06 where
it stops*
G|--------------------------------------------------------------------------|
D|--------------------------------------------------------------------------|
A|---3-----3-----1-------1--------------1-------3-----1---------------------|
E|-------------------------------1----------------------------1-------------|

At 4:23 start playing F. And getting faster and faster, just follow the tempo
until the end of the song.
G|----------------------------------|
D|----3----3---3---3----------------|
A|------3----3---3---3--------------|
E|----------------------------------|


Well, I hope it turned out ok.
This was the first time I've played it and I worked along with the song and what
I played here fit so I hope it's ok. 

If you have any questions/corrections please email me at blackheart115@hotmail.com.

            
            
Suggest correction
Creating personal tab
Creating personal tab
You can edit any tab online and save it as your Personal.

You can edit, replace or remove any tab part or add personal notes – all changes will be seen only by you.

Personal tabs can be accessed anytime from any device, even offline.
Learn more »
comments
print report bad tab
6 comments total. Showing first comments.
+1 reply
benjidude945 123 Aug 16, 2008 02:20 PM

You're an idiot!
It's called BABA O'RILEY
good bass tab I guess

+1 reply
Zoso1980 71 Aug 18, 2008 12:56 PM

Dumbass!! the name of the song is called Baba O'Riley.

+1 reply
zeppelin42 60 Aug 19, 2008 06:47 AM

FOR THE MILLIONTH TIME, IT'S CALLED BABA O'RILEY, NOT TEENAGE WASTELAND, I HATE PEOPLE WHO DO THAT!

The tab isn't even very accurate either.

guest
You may want to rate the tab now too:
select rating
Wanna post a correction for this tab? Suggest correction