Oops, an error
Loading. Please wait.

I Dont Even Know Myself bass

by The Who
769 views 3 this week
2 commentsread comments
1 2 3 4 5
2 more votes to show rating
add to favorites
×
Save as Personal and add changes to this tab that will be seen only by you. Learn more ›
×
You can save this tab as Personal to edit and correct it or add notes. All changes will be seen only by you. Learn more »
launch autoscroll
font size
0
reset
guitar tuner
edit
Autoscroll
slow
fast
+/-
esc
set tempo
stop
Author
-----------------------------------------------------------------------------
			    I Don't Even Know Myself - The Who
-----------------------------------------------------------------------------

Tabbed By : Bigevil0214
e-mail: Bigevil0214@aim.com

Tuning: Standard


Intro

G|----17/----------------------------5555---------------------------------------------|
D|------------------------------------------------------------------------------------|
A|----------------3~------------------------------------------------------------------|
E|------------------------------------------------------------------------------------|


Verse

Repeat this 4 times
G|---------------------------------|
D|---------------------------------|
A|----3-3--0-3--0-3-1p0----------1-|
E|----------------------1~--1h3----|

Then play this part 2 times

G|--------------------------3----------3---------------------------------------------|
D|----3-3-----3-3-------5---------3--------------------------------------------------|
A|---------5--------6---------5------------------------------------------------------|
E|----------------------------------------6------------------------------------------|

This is the "don't pretend that you know me cause I Don't Even Know Myself" part

G|---------------------------------------------------------------------------------|
D|---------------------------------------------------------------------------------|
A|--------------------6~-----------------------66----------------------------------|
E|------4~------------------------44-----------------------------------------------|

G|----------------------------------------------------------------------------------|
D|------3-3-3-3-3-------------------------------------------------------------------|
A|----------------------------------------------------------------------------------|
E|----------------------------------------------------------------------------------|

Repeat verse a couple of times then play the slow bridge part

G|--------------------------------------------------------|
D|----3--3-----1-3-1-------------3----1-3-1---------3--3--|
A|----------3---------1--1--------------------3--3--------|
E|--------------------------------------------------------|

^^^^^^^^^^Repeat that twice Then play this part

G|----------------------------------------------------------------------------------|
D|------------3--1-3-1--------1--1-----------------3--------------------------------|
A|------1--1-----------------1--------1--1------------------------------------------|
E|----------------------------------------------------------------------------------|
Something like that listen to the song for timing and all that

Then play the beginning part of the bridge again

Play verse and the chorus part again

And then the bridge again

This is the "Do You Remember Me?" Part

This part was a little harder to transcribe
G|--------------------------------------------|
D|--------------------------------------------|
A|----3-3-3-3-3-3--1-1-1-1-1-1--play 4 times--|
E|--------------------------------------------|

Then it's "I have been gone and some prison water knows my scream"

G|----------------------------------------------------------------------------------|
D|----------------------------------------------------------------------------------|
A|----3-3-3-3-3---------------------------------------------------------------------|
E|--------------6-6--5-5--3-3-------------------------------------------------------|

^^^^^^^^^^^^^^Play that 3 times

Then end that with
G|--------------------17/-------|
D|------------------------------|
A|------333333 /15--------3-----|
E|------------------------------|

Play the verse again
Then the chorus part of it
Then end with playing the bridge

That's all I have for this great Who song. Sorry if I couldn't figure everything out. 
Entwistle is an amazing bass player. Hope you enjoy the tab! Thanks!

            
            
Suggest correction
Creating personal tab
Creating personal tab
You can edit any tab online and save it as your Personal.

You can edit, replace or remove any tab part or add personal notes – all changes will be seen only by you.

Personal tabs can be accessed anytime from any device, even offline.
Learn more »
Give kudos to tab author, rate the tab!
1 2 3 4 5
comments
print report bad tab
2 comments total.
0 reply
Bigevil0214 61 Oct 28, 2009 10:29 AM

Yo this Bigevil0214 and im commenting on my tab because i made a mistake on the verse part. I don't know how it happened.

It should be like this!
G|---------------------------------------------------------------------------|
D|---------------------------------------------------------------------------|
A|-----3-3--0-3-0 3-1p0---------1-------------------------------------------------------|
E|---1~---1h3---------------------------------------------------------------------|

0 reply
Bigevil0214 61 Oct 28, 2009 10:34 AM

Now i got to fix what i just corrected. Damn it.

G|---------------------------------------------------------------------------|
D|---------------------------------------------------------------------------|
A|-----3-3--0-3--0-3--1p0----------------1----------------------------

E|----------------------------1~----1h3-------------------------------

guest
You may want to rate the tab now too:
select rating
Wanna post a correction for this tab? Suggest correction