Oops, an error
Loading. Please wait.

Lets See Action bass

by The Who
1,340 views 3 this week
no commentswrite comment
1 2 3 4 5
3 more votes to show rating
add to favorites
×
Save as Personal and add changes to this tab that will be seen only by you. Learn more ›
×
You can save this tab as Personal to edit and correct it or add notes. All changes will be seen only by you. Learn more »
launch autoscroll
font size
0
reset
guitar tuner
edit
Autoscroll
slow
fast
+/-
esc
set tempo
stop
The Who - Let's See Action
written by Pete Townshend, 1971
one of the three singles taken from the abandoned Lifehouse project

G|-----------------------------------3---------------------------|
D|----------------------------------------3-3--------------------|
A|-3-3-0---3-3-0---3-3-0---3-3-0---1---1------0-3-3-0---3-3-0----|   X8 (verse-riff)
E|-------3-------3-------3-------3--------------------3-------3--|

G|--------------------------------------------3---------------------------|
D|------10-10-----10-10-----10-10-----10-10-------3-3---------------------|
A|-3-3--------3-3-------3-3-------3-3-------1---1-----0-3-3-0---3-3-0-----|   X2 (instrumental)
E|------------------------------------------------------------3-------3---|

G|-----------------------------------3---------------------------|
D|----------------------------------------3-3--------------------|
A|-3-3-0---3-3-0---3-3-0---3-3-0---1---1------0-3-3-0---3-3-0----|   
E|-------3-------3-------3-------3--------------------3-------3--|
X2 (stop on C note before Pete starts his singing part)

"give me a drink boy..."
G|-17-16-14----------17-16-14---------------|
D|----------17-15-17----------17-15-17------|
A|-------------------------------------15---|
E|------------------------------------------|

"i don't know where i'm going..."
G|-----------------------------------------------------|
D|-----------------------------------5-5-5-5-5-5-5-----|
A|---------3-2-0---------------------------------------|
E|-1-1-3-3-------3-1-2-6-6-3-3-3-3-3-------------------|

G|-----------------------------------3---------------------------|
D|----------------------------------------3-3--------------------|
A|-3-3-0---3-3-0---3-3-0---3-3-0---1---1------0-3-3-0---3-3-0----|   
E|-------3-------3-------3-------3--------------------3-------3--|
X4 (stop again on C before the ending part)

G|----------|
D|-8--------|
A|---8------| (final riff: play this til the end of the song)
E|-----8----|

I think this could work
follow the song and try to figure out the different riffs
hope it could help you
LONG LIVE ROCK

            
            
Suggest correction
Creating personal tab
Creating personal tab
You can edit any tab online and save it as your Personal.

You can edit, replace or remove any tab part or add personal notes – all changes will be seen only by you.

Personal tabs can be accessed anytime from any device, even offline.
Learn more »
Give kudos to tab author, rate the tab!
1 2 3 4 5
comments
print report bad tab
guest
You may want to rate the tab now too:
select rating
Wanna post a correction for this tab? Suggest correction