Oops, an error
Loading. Please wait.
We have an official Wont Get Fooled Again tab made by UG professional guitarists. Check out the tab »
×
by The Who
21,553 views 15 this week
2 commentsread comments
1 2 3 4 5
x 7
add to favorites
×
Save as Personal and add changes to this tab that will be seen only by you. Learn more ›
×
You can save this tab as Personal to edit and correct it or add notes. All changes will be seen only by you. Learn more »
launch autoscroll
font size
0
reset
how to read this tab
guitar tuner
backing track
0:00
0:00
edit
Autoscroll
slow
fast
+/-
esc
set tempo
stop
Author
Difficulty
                               Won't Get Fooled Again (Pete Townshend)
                                              The Who
                                            Who's Next?


Intro:

 Guitar I (Electric)
|------------------------------------------------------------------------------------------|
|------------------------------------------------------------------------------------------|
|-2----------------------------------------------------------------------------------------|
|-2----------------------------------------------------------------------------------------|
|-0----------------------------------------------------------------------------------------|
|------------------------------------------------------------------------------------------|
|Guitar II (Synthesizer Tab for Guitar)
|-------------------9----12-12-12-12-12-12-10-9-10-10-10-10-10-10-9----9-9-9-9-10-10-10-10-|
|-10-10-10-10-10-10---12--------------------------------------------12---------------------|
|------------------------------------------------------------------------------------------|
|------------------------------------------------------------------------------------------|
|------------------------------------------------------------------------------------------|
|------------------------------------------------------------------------------------------|

 Guitar II
|-9----9-10-9----9-10-12-10-9----12-10-9----12-10-9----12-10-9----12-10-9----12-10-9----12-10-9----|
|---12--------12--------------10---------10---------10---------10---------10---------10---------10-|
|--------------------------------------------------------------------------------------------------|
|--------------------------------------------------------------------------------------------------|
|--------------------------------------------------------------------------------------------------|
|--------------------------------------------------------------------------------------------------|

|-12-10-9----12-10-9----12-10-9----12-10-9----12-10-9--------9-10-9----9-10-9----9-10-9----9-10-9-|
|---------10---------10---------10---------10---------10--10--------10--------10--------10--------|
|-------------------------------------------------------------------------------------------------|
|-------------------------------------------------------------------------------------------------|
|-------------------------------------------------------------------------------------------------|
|-------------------------------------------------------------------------------------------------|

|----9-10-9----9-10-9----9-10-9----9-10-9----9-10-9----9-10-9----9-10-9----|
|-10--------10--------10--------10--------10--------10--------10--------10-|
|--------------------------------------------------------------------------|
|--------------------------------------------------------------------------|
|--------------------------------------------------------------------------|
|--------------------------------------------------------------------------|


(Guitar Come In)

(00:30)
|------------------------------------------------------|
|------------------------------------------------------|
|---2--------2--------2---2---2------------6r4p2---2---|
|---2--------2--------2---2---2------------------------|
|---0--------0--------0---0---0------------------------|
|-3--------3--------3----------------------------------|


(From "We'll be fighting in the streets...")
|-----------------------------------------------0---0------|
|-----------------------------------------------0---1----3-|
|-2-------------------2-------------------------1---0----0-|
|---2-----2--2-2-----------2-2----------------------2----0-|
|---0---0-0--------0----0--0-0----0-----------------3------|
|------------------------------------3b3.5--0----------3---|

(From "And the men who spurred us on...")
|----5-----------5----5---------5---------------------0---0------|
|----5-----------5----5---------5---------------------0---1----3-|
|----6-----------6--------------6-----2---------------1---0----0-|
|---------------------------------------------------------2----0-|
|-0-------0---0----------0---0----------------------------3------|
|---------------------------------------3b3.5--3--0----------3---|

(From "I tip my hat to the new constitution...")
 Guitar
|---2---5-------2---5-----------2---5-------2---5-----------2---5-------2---5-------|
|-----------------------------------5-----------------------------------------------|
|-----------------------------------------------------------------------------------|
|-----------------------------------------------------------------------------------|
|-0---0-------0---0-----------0---0-------0---0-----------0---0-------0---0---------|
|-----------------------------------------------------------------------------------|
|Bass
|-----------------------------------------------------------------------------------|
|-4-2---------4-2-------------4-2---------4-2-------------4-2---------4-2-----------|
|-----4-2-0-------4-2-4-2-0-------4-2-0-------4-2-4-2-0-------4-2-0-------4-2-0-----|
|-------------------------------------------------------------------------------2-0-|

(From "Pick up my guitar and play...")
|----3-------4----2----0-------7-----4----2-------4------7----2----3--2--------2-|
|----3--------------------------------------------------------3----3--3--------3-|
|---------/4----2----1-----4/7----/4----2-----1/4-----/7------2----0--2--------2-|
|-------------------------------------------------------------0----0--0--------0-|
|--------------------------------------------------------------------------3-----|
|-3------------------------------------------------------------------------------|

|------3--2---------3--2-------5-----5-----5------2--2-2-2----5-----5-5--2--|
|-2----3--3----2----3--3-------5-----5-----5------3--3-3-3----5-----5-5--3--|
|-2----0--2----2----0--2--------------------------2--2-2-2---------------2--|
|-2----0--0----2----0--0--------------------------0--0-0-0---------------0--|
|-0------------0------------0----0-0---0-0---0-0------------0---0-0---------|
|---------------------------------------------------------------------------|

(From "The change it had to come...")
|---------------------------------------------0----0------|
|---------------------------------------------0----1----3-|
|-2----------2-2----------2-2-----------------1----0----0-|
|-2------------------------------------------------2----0-|
|-0------0----------0--0--------0------------------3------|
|----------------------------------3b3.5--0-----------3---|

(From "And the world looks just the same...")
|--------9\---9\---9------9\---9\---9-------------0----0------|
|-------10\--10\--10-----10\--10\--10-------------0----1----3-|
|--------9\---9\---9------9\---9\---9-------------1----0----0-|
|------------------------------------------------------2----0-|
|-0----------------------------------------------------3------|
|---------------------------------------------0-----------3---|

(From "I tip my hat to the new constitution...")
 Guitar
|---2---5-------2---5-----------2---5-------2---5-----------2---5-------2---5-------|
|-----------------------------------5-----------------------------------------------|
|-----------------------------------------------------------------------------------|
|-----------------------------------------------------------------------------------|
|-0---0-------0---0-----------0---0-------0---0-----------0---0-------0---0---------|
|-----------------------------------------------------------------------------------|
|Bass
|-----------------------------------------------------------------------------------|
|-4-2---------4-2-------------4-2---------4-2-------------4-2---------4-2-----------|
|-----4-2-0-------4-2-4-2-0-------4-2-0-------4-2-4-2-0-------4-2-0-------4-2-0-----|
|-------------------------------------------------------------------------------2-0-|

(From "Pick up my guitar and play...")
|----3---------------------------7---12---------12---------12-----------3---2----3--2----3--5---10-|
|----3----12r10----8--8-----------------15b17------15b17------15b17-----3---3----3--3----3--5---10-|
|---------------9-------9----6/7--------------------------------------------2----0--2----0--6------|
|---------------------------------------------------------------------------0----0--0----0--7------|
|--------------------------------------------------------------------------------------------------|
|-3------------------------------------------------------------------3-----------------------------|

|------3--2--------3-|---------------------2--2------------------------2--2---|
|-2----3--3---2----3-|---------------------3--3------------------------3--3---|
|-2----0--2---2----0-|-2---2-2---2---2---2-2--2----2---2-2---2---2---2-2--2---|
|-2----0--0---2----0-|-2---2-2---2---2---2-0--0----2---2-2---2---2---2-0--0---|
|-0-----------0----2-|-0---0-0---0---0---0---------0---0-0---0---0---0--------|
|------------------3-|---------3-------3-------------------3-------3----------|

|---------------------2--2------------------------2--2---|
|---------------------3--3------------------------3--3---|
|-2---2-2---2---2---2-2--2----2---2-2---2---2---2-2--2---|
|-2---2-2---2---2---2-0--0----2---2-2---2---2---2-0--0---|
|-0---0-0---0---0---0---------0---0-0---0---0---0--------|
|---------3-------3-------------------3-------3----------|

|-5-----5-----5--------------------5-----5-----5--------------------5-----5-----5------------------|
|-5-----5-----5------3-3-3-3-3-3---5-----5-----5------3-3-3-3-3-3---5-----5-----5------3-3-3-3-3-3-|
|---2-----2-----2----2-2-2-2-2-2-----2-----2-----2----2-2-2-2-2-2-----2-----2-----2----2-2-2-2-2-2-|
|--------------------2-2-2-2-2-2----------------------2-2-2-2-2-2----------------------2-2-2-2-2-2-|
|-----0-----0-----0--0-0-0-0-0-0-------0-----0-----0--0-0-0-0-0-0-------0-----0-----0--0-0-0-0-0-0-|
|--------------------------------------------------------------------------------------------------|

|-5-----5---------|
|-5-----5------3--|
|---2-----2----2--|
|--------------2--|
|-----0-----0--0--|
|-----------------|


(From "I move myself and my family aside")
|---------------------------0-------------------------5----------------------------------------|
|-------------2-------------0---------------2-----------------------5-5--4---------------------|
|----4-----/4---4-2---2-----1---------------2----4b6----4-2---------4-4--4--4--4----4--4-------|
|----4--------------4-------2------0h2-2----2-------------------------------4--4----4--4-------|
|-2------------------------------2--------0--------------------2------------2--2----2--2-------|
|------------------------0----------------------------------------------------------------0-0--|

|-------------------------------------------------------------------0---|
|---------x-x-x---------------------x-x-x-------------------x-x-----0---|
|---4--4--x-x-x--4-----------4---4--x-x-x--4---------4---4--x-x--4--1---|
|---4--4--x-x-x--4--2-2------4---4--x-x-x--4--2-2----4---4--x-x--4--2-2-|
|-2----2--x-x-x--2--2-2---0--2---2--x-x-x--2--2-2----2---2--x-x--2--2-2-|
|-------------------0-0-----------------------0-0-------------------0-0-|


Guitar Solo:
|----------------------------7----------7----------7--------------------------------------|
|-7------------------10---10---10-10-10---10-10-10---10-10--10-10--10-10--9-9--9-9--------|
|-7-------11r9p7--------------------------------------------------------------------7b8---|
|----9-----------9----------------------------------------------------------------------9-|
|-----------------------------------------------------------------------------------------|
|-----------------------------------------------------------------------------------------|

|--------------------------------------------------------------------------------------------|
|-10b12---12-12r10--10-10-10--7------7----7----7----7----------------------------------------|
|-------------------11-11-11--8------7b8--7b8--7b8--7b8r7-----------------------7------------|
|--------------------------------9------------------------7-9-------7---7--9----9-7----------|
|---------------------------------------------------------------7h9---9-------------9-7------|
|---------------------------------------------------------------------------------------10-7-|

|----------------------------------------------------------------------------|
|----------------------7----7----7----------------------------7---7----------|
|-----7------7----9----7h8--7h8--7h8--7-6----9-9----9-9-------8---8-7-6----9-|
|-7---7-9----7-9--9-----------------------9-----------------------------9--9-|
|-7h9------9----------------------------------------------7h9---9------------|
|----------------------------------------------------------------------------|

|--------3--2-----------3--2-----------3--2-----------3---2---|
|-2------3--3----2------3--3----2------3--3----2------3---3---|
|-2------0--2----2------0--2----2------0--2----2------0---2---|
|-2------0--0----2------0--0----2------0--0----2------0---0---|
|-0--------------0--------------0--------------0--------------|
|-------------------------------------------------------------|


(From "There's nothing in the streets...")
|----5--5-5-------------------------------------------------0---------2--|
|----5---------------------------------3--------------------0----3-3--3--|
|------------6r4p2---2----------2-2----2-----2---2----------1----0-0--2--|
|------------------4--------------2----------2---2----------2----0-0--0--|
|-0---------------------3b4--0-------0----0--0---0-----------------------|
|---------------------------------------------------3b4--0---------------|

(From "And the parting on the left...")
|------------------------------------------------------------5---0----2-2--3-|
|----------------------------------------------------------------0----3-3--3-|
|----6r4-2---2-2------2-2---2-2-x--2-2-2-------2-2---2---2-------1----2-2--0-|
|----------4-----------------------------------------------------2----0-0--0-|
|-0----------------0------0-----------------0--------------------------------|
|----------------------------------------------------------------------------|

(From "I tip my hat to the new constitution...")
 Guitar
|---2---5-------2---5-----------2---5-------2---5-----------2---5-------2---5-------|
|-----------------------------------5-----------------------------------------------|
|-----------------------------------------------------------------------------------|
|-----------------------------------------------------------------------------------|
|-0---0-------0---0-----------0---0-------0---0-----------0---0-------0---0---------|
|-----------------------------------------------------------------------------------|
|Bass
|-----------------------------------------------------------------------------------|
|-4-2---------4-2-------------4-2---------4-2-------------4-2---------4-2-----------|
|-----4-2-0-------4-2-4-2-0-------4-2-0-------4-2-4-2-0-------4-2-0-------4-2-0-----|
|-------------------------------------------------------------------------------2-0-|

(From "Pick up my guitar and play...")
|-12--12----------------------------------------------------------------------------------------|
|--------15-12-----------------------12---------------------------------------------------------|
|--------------14b16-14-12-----------------12b13----11---------11----11b12---12r11-----------11-|
|--------------------------14--12h14-------------14----11-14------14---------------14-----------|
|--------------------------------------------------------------------------------------10h12----|
|-----------------------------------------------------------------------------------------------|

|---------------10--------------------------------------------------------|
|----------10------------------------------------------------3---------3--|
|-11----------------11-12--11-------2----2-2-------2-2-------2----2----0--|
|----12-----------------------------2----2-2-------2-2------------2----0--|
|-------12--------------------------0---------0---------0---------0-------|
|-------------------------------------------------------------------------|

2nd Guitar Solo:
|-5-----5-----5--------------------5-----5-----5--------------------5-----5-----5------------------|
|-5-----5-----5------3-3-3-3-3-3---5-----5-----5------3-3-3-3-3-3---5-----5-----5------------------|
|---2-----2-----2----2-2-2-2-2-2-----2-----2-----2----2-2-2-2-2-2-----2-----2-----2----------------|
|--------------------2-2-2-2-2-2----------------------2-2-2-2-2-2---------------------------2------|
|-----0-----0-----0--0-0-0-0-0-0-------0-----0-----0--0-0-0-0-0-0-------0-----0-----0--2b4---2-2-0-|
|--------------------------------------------------------------------------------------------------|

|-5-----5-----3--2------------------------------------------------------------3-2-3-2--2-|
|-5-----5-----3--3------------------------------------------------------------3-3-3-3--3-|
|---2-----2---0--2------2p0---2p0---2p0---2p0---2p0---2p0---2p0---2p0---2-----2-2-2-2--2-|
|-------------0--0------------------------------------------------------2-----0-0-0-0--0-|
|-----0-----0--------0------0-----0-----0-----0-----0-----0-----0-----0----0-------------|
|----------------------------------------------------------------------------------------|

|-------------------------------------------------------------------------------------------------|
|-17------17-----17-------17--17-17---17----------3-1---3-1---3-1---3-1----3-1---3-1---3-1---3-1--|
|-16b18---16b18--16-16b18-----18-16---16-14-14----2-2---2-2---2-2---2-2----2-2---2-2---2-2---2-2--|
|-------------------------------------------------------------------------------------------------|
|-------------------------------------------------------------------------------------------------|
|-------------------------------------------------------------------------------------------------|

|---------------------------------------------------------------------------------------------|
|-------3---3-------------------3--3-3----17-17-17-17-17-17-17-17-17-17-17-17-17-17-17-17-17^-|
|-2-----0---2----2------2-2-2---2--2-2----17-17-17-17-17-17-17-17-17-17-17-17-17-17-17-17-17^-|
|-2-2---0---0----2------2-2-2---0--0-0--------------------------------------------------------|
|-0---0----------0------0-0-0-----------------------------------------------------------------|
|---------------------------------------------------------------------------------------------|

|----------------------------------------------------|
|--------17-----17-----------------------------------|
|-16b18-----18--18r16-----6r4-2--------2---------2---|
|--------------------------------------2---------2---|
|--------------------------------4-0---0---------0---|
|----------------------------------------------------|


Synthesizer Solo Tab for Guitar:
|-9----9----9----9----9-10-9----9----9----9----9----10----10----10-10-9----9-10-9----9-10-9----|
|---12---12---12---12--------12---12---12---12---12----12----12---------12--------12--------12-|
|----------------------------------------------------------------------------------------------|
|----------------------------------------------------------------------------------------------|
|----------------------------------------------------------------------------------------------|
|----------------------------------------------------------------------------------------------|

|-9-10-9----9-10-9----------------------9-12-10-9----10-9----10-9----10-9----10-9----10-9----|
|--------12--------12-10-10-10-10-10-10-----------12------12------12------12------12------12-|
|--------------------------------------------------------------------------------------------|
|--------------------------------------------------------------------------------------------|
|--------------------------------------------------------------------------------------------|
|--------------------------------------------------------------------------------------------|

|-10-9----10-9----10-9----10-9----9-10-9----------------------------9----9----10-9----|
|------12------12------12------10--------------------------------10---10---10------10-|
|----------------------------------------9-9-10-10-9-9-------9-9----------------------|
|------------------------------------------------------12-12--------------------------|
|-------------------------------------------------------------------------------------|
|-------------------------------------------------------------------------------------|

|----9----9----10-9----------9----------9----------9----9----9----9----9----9-10--10-9----9----|
|-10---10---10------10----10---10----10---10----10---10---10---10---10---10------------10---10-|
|----------------------12---------12---------12------------------------------------------------|
|----------------------------------------------------------------------------------------------|
|----------------------------------------------------------------------------------------------|
|----------------------------------------------------------------------------------------------|

|-9----10----9----9----10-9-9----9----10----9----9----10-9----9----10-9------------------------|
|---10----10---10---10--------10---10----10---10---10------12---10------10---------------------|
|--------------------------------------------------------------------------9-9-------9-9-------|
|------------------------------------------------------------------------------12-12-----12-12-|
|----------------------------------------------------------------------------------------------|
|----------------------------------------------------------------------------------------------|

|----9-10-9-------------------------------9-10-9----------9-10-9-------9-10-10-9----|
|-10-------12-12-10-10-------10-10--10-12--------12-10-10--------10-12-----------12-|
|----------------------12-12--------------------------------------------------------|
|-----------------------------------------------------------------------------------|
|-----------------------------------------------------------------------------------|
|-----------------------------------------------------------------------------------|

|----------------------------------------------9-10-10-10----17-17-17-17-17-17-17-17-|
|-10-10-12----10-10-12----10-10-12----10-10-12------------10-------------------------|
|----------12----------12----------12------------------------------------------------|
|------------------------------------------------------------------------------------|
|------------------------------------------------------------------------------------|
|------------------------------------------------------------------------------------|

|-17-17-17-17-------------17-17-17-17-17-17-17-17-------------17-17-17-17-17-17-17-17-|
|-------------------------------------------------------------------------------------|
|-------------14-14-14-14-------------------------14-14-14-14-------------------------|
|-------------------------------------------------------------------------------------|
|-(Drums_come_in)---------------------------------------------------------------------|
|-------------------------------------------------------------------------------------|

|-------------17-17-17-17-17-15-15-15-14-14-14-14-14-14-14-14-|
|-------------------------------------------------------------|
|-14-14-14-14-------------------------------------------------|
|-------------------------------------------------------------|
|-------------------------------------------------------------|
|-------------------------------------------------------------|
End Of Solo

(From "Yeah!")
|----------3--2-2--------------3--2-2----|
|----------3--3-3--------------3--3-3----|
|-2--------0--2-2-----2--------0--2-2----|
|-2--------0--0-0-----2--------0--0-0----|
|-0-------------------0------------------|
|----------------------------------------|

(From "Meet the new boss, same as the old boss")
|----------3--2-2--------------3--2-2---------------------3-2--------------------3-2--|
|----------3--3-3--------------3--3-3---------------------3-3--------------------3-3--|
|-2--------0--2-2-----2--------0--2-2----2---2-2---2-2----0-2---2---2-2---2-2----0-2--|
|-2--------0--0-0-----2--------0--0-0----2---2-2---2-2----0-0---2---2-2---2-2----0-0--|
|-0-------------------0------------------0---0-0---0-0----------0---0-0---0-0---------|
|------------------------------------------------------3----------------------3-------|

|------------------3-2--------------------3-2--|
|------------------3-3--------------------3-3--|
|-2---2-2---2-2----0-2---2---2-2---2-2----0-2--|
|-2---2-2---2-2----0-0---2---2-2---2-2----0-0--|
|-0---0-0---0-0----------0---0-0---0-0---------|
|---------------3----------------------3-------|


Outro:
|----5-----5-----5-----2--2-------5-----5-----5-----2--2---|
|----5-----5-----5-----3--3-------5-----5-----5-----3--3---|
|----------------------2--2-------------------------2--2---|
|----------------------0--0-------------------------0--0---|
|-0----------------------------0---------------------------|
|------3-5---3-5---3-5--------------3-5---3-5---3-5--------|

|-9---------9-----------------------|
|-10--------10--------2---------x---|
|-9----2----9----2----2---------x---|
|------2---------2----2---------x---|
|------0---------0----0-----------0-|
|-----------------------------------|

            
            
Suggest correction
Creating personal tab
Creating personal tab
You can edit any tab online and save it as your Personal.

You can edit, replace or remove any tab part or add personal notes – all changes will be seen only by you.

Personal tabs can be accessed anytime from any device, even offline.
Learn more »
comments
print report bad tab
2 comments total.
0 reply
Jibbs 431 Jul 28, 2006 03:24 PM

Very cool, finally, a synthesizer tab for this song that can actually be played.

0 reply
80smetalfreke 735 May 06, 2010 01:53 PM

Amazing tab I thought version 3 was good but this is perfect thanks bro.

guest
You may want to rate the tab now too:
select rating
Wanna post a correction for this tab? Suggest correction