Oops, an error
Loading. Please wait.

Lonely Is A Lifetime chords

1,081 views 6 this week
no commentswrite comment
1 2 3 4 5
x 9
add to favorites
×
Save as Personal and add changes to this tab that will be seen only by you. Learn more ›
×
You can save this tab as Personal to edit and correct it or add notes. All changes will be seen only by you. Learn more »
launch autoscroll
font size
0
reset
transpose
0
reset
display chords
guitar tuner
edit
Autoscroll
slow
fast
+/-
esc
set tempo
stop
Author
Difficulty
Strumming
There is no strumming pattern for this song yet. and get +5 IQ
The Wild Feathers- Lonely Is A Lifetime

Intro: C, Am

Verse:
C                          Am                Em            G
No one really knows her first name, but they all hold her hand

C                         Am            Em          G
Everyone leans on her windowpane but no one looks in

     C  Am            C   Am
She’s so     far from home


Chorus:
     F       G             Em             Am
But only the starlight can turn this town cold
     F          G           Em                    Am
And lonely is a lifetime of getting used to being alone
   F    G          C     Am      C       Am
So where   do you go?


Slide Solo 1:

e----/8--7/8\7\5------/8--7/8\7-5/7\5------------------------------|
B-------------------------------------5----------------------------|
G------------------------------------------------------------------|
D------------------------------------------------------------------|
A------------------------------------------------------------------|
E------------------------------------------------------------------|

Verse:
   C                             Am               Em         G
The street lights come with a cool breeze and she waits all night
   C                        Am                   Em         G
And just before the morning sunlight, she breaks down and cries

      C    Am            C    Am
She’s trying  to make it right


Chorus:

     F       G             Em             Am
But only the starlight can turn this town cold
     F          G           Em                    Am
And lonely is a lifetime of getting used to being alone
   F    G          C     Am      C       Am
So where   do you go?

Slide Solo 2:

e----/8--7/8\7\5------/8--7/8\7-5/7\5------------------------------|
B-------------------------------------5----------------------------|
G------------------------------------------------------------------|
D------------------------------------------------------------------|
A------------------------------------------------------------------|
E------------------------------------------------------------------|

e----/8--7/8\7\5------/8---7/8/10/12~~-10/12-13-12-10-10\8--8------|
B-------------------------------------------------------------10-8~|
G------------------------------------------------------------------|
D------------------------------------------------------------------|
A------------------------------------------------------------------|
E------------------------------------------------------------------|

Chorus:
     F       G             Em             Am
But only the starlight can turn this town cold
     F          G           Em                    Am
And lonely is a lifetime of getting used to being alone
   F    G          C     Am      C       Am
So where   do you go?

            
            
Suggest correction
Creating personal tab
Creating personal tab
You can edit any tab online and save it as your Personal.

You can edit, replace or remove any tab part or add personal notes – all changes will be seen only by you.

Personal tabs can be accessed anytime from any device, even offline.
Learn more »
comments
print report bad tab
guest
You may want to rate the tab now too:
select rating
Wanna post a correction for this tab? Suggest correction