Oops, an error
Loading. Please wait.

Regret tab

1,273 views 6 this week
no commentswrite comment
1 2 3 4 5
x 3
add to favorites
×
Save as Personal and add changes to this tab that will be seen only by you. Learn more ›
×
You can save this tab as Personal to edit and correct it or add notes. All changes will be seen only by you. Learn more »
launch autoscroll
font size
0
reset
how to read this tab
guitar tuner
edit
Autoscroll
slow
fast
+/-
esc
set tempo
stop
Author
Difficulty
I've tried to adapt a few of the piano parts of this song to be played on one guitar.

So just follow the piano and you'll get it!

Intro:
---5-3---3-5----------|-------|
-5-5-5-5-5-5-3h5p3s1--|---1---|
-5-----5-----5-----2--|-2-2---|
----------------------|-------|
----------------------|-------|
----------------------|-------|

---5-3---3-5----------|-------|
-5-5-5-5-5-5-3h5p3s1--|---1-1-|
-5-----5-----5-----2--|-2-2-2-|
----------------------|-------|
----------------------|-------|
----------------------|-------|

---5-3---3-5----------|-------|
-5-5-5-5-5-5-3h5p3s1--|---1---|
-5-----5-----5-----2--|-2-2---|
----------------------|-------|
----------------------|-------|
----------------------|-------|
                            How many times...
-s8-10-12-8--8h10-8---|-5-5-5-|
--8-8--8--8--8----8---|-6-6-5-|
----------------------|-5-5-5-|
----------------------|-------|
----------------------|-------|
----------------------|-------|

Chorus (follow the lyrics to get where the chords should be at)

C                         Fmaj7
How did I let my-self go---o
-8---x-------------------------------|
-x---10-8------8--10-------5----5--5-|
-9---9--9--9---9--9--7h9p7s5----5--5-|
-10--10-10-10--10-10-------7---7--7--|
-----------10-------------(8)--------|
-------------------------------------|

Fmaj7                        Dm7
We've been down this road be-fo---re   I've seen it
-8-----x-------------------------------------------|
-x-----10---8---------8---10-------5---------------|
-9-----9----9----9----9---9--7h9p7s5----------5--7-|
-10----10---10---10---10--10-------7----7-----7--7-|
-----------------10---------------(8)--------------|
---------------------------------------------------|

C                         Am
I guess by now we should know
-8---x-------------------------------|
-x---10-8------8--10-------5----5--5-|
-9---9--9--9---9--9--7h9p7s5----5--5-|
-10--10-10-10--10-10-------7---7--7--|
-----------10-------------(7)--------|
-------------------------------------|

    C (or Dm7)                F            G
But you make it hard to let  goo--o----------|o
----8---x------------------------------------|
----x---10---8-------8--10---10b---------10--|
----9---9----9---9---9--9---------12---------|
----10--10---10--10--10-10-------------------|
-----------------10--------------------------|
---------------------------------------------|

Am                                    Fmaj7
How many times are we gonna play the game,
C                        G
thinkin that it's gonna change?
Am                                 Fmaj7
I wish I could somehow forget your face
          C                      G
It ain't easy to turn and walk away

Dm7         Fmaj7
So if I'm nothin' to you,
Dm7
everything is everything
                  F   -  G
        that you wanted

(use the above riffs)
C                    Am  (Am7 - Am)
How did I let myself go?
Fmaj7                       Dm7       Dm7 - Dm
We've been down this road before, I've seen it
C                         Am
I guess by now we should know,
Dm7                          F   G
But you make it hard to let go.

Am                                   Fmaj7
How many times are you gonna make me pay,
          C                   G
For my feelings that I can't deny?
       Am                     Fmaj7
You show me hope then you take away
          C                               G
Keep me believing, it's somethin in your eyes

        Dm7           Fmaj7
But I'm feeling that anything can change
Dm7                                 F       G
  Everything is everything that we make it

(use the above riffs)
C                    Am  (Am7 - Am)
How did I let myself go?
Fmaj7                       Dm7       Dm7 - Dm
We've been down this road before, I've seen it
C                         Am
I guess by now we should know,
Dm7                         F   G
But you make it hard to let go.

Solo:
|Am G |F    |Am G |F    |
|Am C |G    |F  C |G    |
|F  C |Am G |F  C |Am G |
|F  C |Am G |F  C |Am G |


oh-oh...             I've paid a debt...
------------------------|
-8s10-8-10--------------|
----------9-7--5-7-9-7~-|
------------------------|
------------------------|
------------------------|

              F            Am           G
I've paid a debt, and now I think I understand
   F    C             Am          G
Regret  I guess it's time to be a man
              F                     C
And face the time that I've spent using you
Am   A4 Cmaj7  G
How did  I     know

        F   C Am  G
I'd regret?
                F       Am          G      F
Oh, I've paid debt, and now I understand regret
C        Am                G
        It's time to be a man
                 F                 C
And face all the time that I spent using you
Am   A4    Cmaj7  G                F   C
How could   I     know I would regret?
Am   A4  Cmaj7 G      Fmaj7
I     didn't  know    I was losing you

            
            
Suggest correction
Creating personal tab
Creating personal tab
You can edit any tab online and save it as your Personal.

You can edit, replace or remove any tab part or add personal notes – all changes will be seen only by you.

Personal tabs can be accessed anytime from any device, even offline.
Learn more »
Give kudos to tab author, rate the tab!
1 2 3 4 5
comments
print report bad tab
guest
You may want to rate the tab now too:
select rating
Wanna post a correction for this tab? Suggest correction