Oops, an error
Loading. Please wait.

Greek Tragedy Acoustic tab

1,078 views 6 this week
no commentswrite comment
1 2 3 4 5
1 last vote to show rating
add to favorites
×
Save as Personal and add changes to this tab that will be seen only by you. Learn more ›
×
You can save this tab as Personal to edit and correct it or add notes. All changes will be seen only by you. Learn more »
launch autoscroll
font size
0
reset
how to read this tab
guitar tuner
edit
Autoscroll
slow
fast
+/-
esc
set tempo
stop
Author
Difficulty
intermediate
-------------------------------------------------------------------------------
                            Greek Tragedy - The Wombats
-------------------------------------------------------------------------------
Tabbed by: Sam Knight
E-mail: sknight3637@aol.com

No Capo
Tuning: Standard

This is the just the tab for Matt's part in this video: https://www.youtube.com/watch?v=oNZ0yjt_w0w
This is my first tab hope it's alright! please leave any suggestions or correction in the comments.

                                                                                       -------|
                                                                                              |
e|--------------------------------------------------------------------------------------|     |
B|--------------------------------------------------------------------------------------|     |
G|-----------------5-------------------5--------------------5\------------------3-------|     |
D|---------6------------------6---------------------6------------------4----------------|     |
A|-----6-------6--------6----------6----------6---------6---------4---------4-----------|
E|--------------------------------------------------------------------------------------|

e|-------------------------------------------------------------------------------|
B|-------------------------------------------------------------------------------|
G|-----------------1------------------1-----------------1-----------------1------|
D|--------2------------------2-----------------2-----------------2---------------|
A|-------------------------------------------------------------------------------|
E|---0---------0--------0--------0--------0--------0--------0---------0----------|
                                                                                              x4
e|------------------------------------------------------------------------------------|
B|------------------------------------------------------------------------------------|
G|-------------------8--------------------8-----------------8--------------------8----|
D|----------9-------------------9------------------9-------------------9--------------|
A|------------------------------------------------------------------------------------|
E|----7----------7--------7----------7--------7--------7---------7----------7---------|

e|------------------------------------------------------------------------------------|
B|------------------------------------------------------------------------------------|
G|-------------------8--------------------8-----------------8--------------------8----|
D|----------9-------------------9------------------9-------------------9--------------|      |
A|------------------------------------------------------------------------------------|      |
E|----6----------6--------6----------6--------6--------6---------6----------6---------|      |
                                                                                             |
                                                                                 ------------|


Chorus:
e|--0--0--0--0--0--0--0--0--0--0--0--0--0--0--0--0--|
B|--0--0--0--0--0--0--0--0--0--0--0--0--0--0--0--0--|
G|--1--1--1--1--1--1--1--1--1--1--1--1--1--1--1--1--|
D|--2--2--2--2--2--2--2--2--2--2--2--2--2--2--2--2--|
A|--2--2--2--2--2--2--2--2--2--2--2--2--2--2--2--2--|
E|--0--0--0--0--0--0--0--0--0--0--0--0--0--0--0--0--|


                            -------|
                                   |
e|----------------------------|    |
B|-------------7-----7-----7--|     
G|------8---------------------|     X4
D|--9------9------9-----9-----|    
A|----------------------------|    |
E|----------------------------|    |
                            -------|

e|--0--0--0--0--0--0--0--0--4--|
B|--0--0--0--0--0--0--0--0--5--|
G|--1--1--1--1--1--1--1--1--6--|
D|--2--2--2--2--2--2--2--2--6--|
A|--2--2--2--2--2--2--2--2--4--|
E|--0--0--0--0--0--0--0--0--x--|

                                                                                       -------|
                                                                                              |
e|--------------------------------------------------------------------------------------|     |
B|--------------------------------------------------------------------------------------|     |
G|-----------------5-------------------5--------------------5\------------------3-------|     |
D|---------6------------------6---------------------6------------------4----------------|     |
A|-----6-------6--------6----------6----------6---------6---------4---------4-----------|
E|--------------------------------------------------------------------------------------|

e|-------------------------------------------------------------------------------|
B|-------------------------------------------------------------------------------|
G|-----------------1------------------1-----------------1-----------------1------|
D|--------2------------------2-----------------2-----------------2---------------|
A|-------------------------------------------------------------------------------|
E|---0---------0--------0--------0--------0--------0--------0---------0----------|
                                                                                              x3
e|------------------------------------------------------------------------------------|
B|------------------------------------------------------------------------------------|
G|-------------------8--------------------8-----------------8--------------------8----|
D|----------9-------------------9------------------9-------------------9--------------|
A|------------------------------------------------------------------------------------|
E|----7----------7--------7----------7--------7--------7---------7----------7---------|

e|------------------------------------------------------------------------------------|
B|------------------------------------------------------------------------------------|
G|-------------------8--------------------8-----------------8--------------------8----|
D|----------9-------------------9------------------9-------------------9--------------|      |
A|------------------------------------------------------------------------------------|      |
E|----6----------6--------6----------6--------6--------6---------6----------6---------|      |
                                                                                             |
                                                                                 ------------|


e|-------------------------------------------------------------------------------|
B|-------------------------------------------------------------------------------|
G|-----------------9------------------9-----------------9------------------9-----|
D|--------11----------------11----------------11------------------11-------------|
A|-------------------------------------------------------------------------------|
E|---9---------9-------9---------9--------9--------9--------9----------9---------|

e|------------------------------------------------------------------------------------|
B|------------------------------------------------------------------------------------|
G|-------------------8--------------------8-----------------8--------------------8----|
D|----------9-------------------9------------------9-------------------9--------------|
A|------------------------------------------------------------------------------------|
E|----7----------7--------7----------7--------7--------7---------7----------7---------|


e|--------------------------------------------------------------------------------------|
B|------11-------------------11-------------------11--------------------11--------------|
G|----------------11--------------------11-------------------11---------------------11--|
D|-----------11-------------------11--------------------11--------------------11--------|
A|--9------------------9---------------------9---------------------9--------------------|
E|--------------------------------------------------------------------------------------|

e|--------------------------------------------------------------------------------------|
B|------11-------------------11-------------------12--------------------12--------------|
G|----------------11--------------------11-------------------13---------------------13--|
D|-----------11-------------------11--------------------13--------------------13--------|
A|--9------------------9---------------------11---------------------11-------------------|
E|--------------------------------------------------------------------------------------|

e|-------------------------------------------------------------------------------|
B|-------------------------------------------------------------------------------|
G|-----------------9------------------9-----------------9------------------9-----|
D|--------11----------------11----------------11------------------11-------------|
A|-------------------------------------------------------------------------------|
E|---9---------9-------9---------9--------9--------9--------9----------9---------|

e|------------------------------------------------------------------------------------|
B|------------------------------------------------------------------------------------|
G|-------------------8--------------------8-----------------8--------------------8----|
D|----------9-------------------9------------------9-------------------9--------------|
A|------------------------------------------------------------------------------------|
E|----7----------7--------7----------7--------7--------7---------7----------7---------|

e|-------------------------------------------------------------------------------|
B|-------------------------------------------------------------------------------|
G|----------------3-----------------3-------------------3-------------------3----|
D|--------4-----------------4------------------4-------------------4-------------|
A|-------------------------------------------------------------------------------|
E|---2--------2--------2---------2--------2--------2---------2---------2---------|

e|-------------------------------------------------------2---2---2---|
B|-------------------------------------------------------2---2---2---|
G|----------------3-----------------3--------------------3---3---3---|
D|--------4-----------------4------------------4---------4---4---4---|
A|-------------------------------------------------------4---4---4---|
E|---2--------2--------2---------2-------2---------------2---2---2---|

e|--0--0--0--0--0--0--0--0--0--0--0--0--0--0--0--0--|
B|--0--0--0--0--0--0--0--0--0--0--0--0--0--0--0--0--|
G|--1--1--1--1--1--1--1--1--1--1--1--1--1--1--1--1--|
D|--2--2--2--2--2--2--2--2--2--2--2--2--2--2--2--2--|
A|--2--2--2--2--2--2--2--2--2--2--2--2--2--2--2--2--|
E|--0--0--0--0--0--0--0--0--0--0--0--0--0--0--0--0--|


                            -------|
                                   |
e|----------------------------|    |
B|-------------7-----7-----7--|     
G|------8---------------------|     X4
D|--9------9------9-----9-----|    
A|----------------------------|    |
E|----------------------------|    |
                            -------|

e|--0--|   
B|--0--| 
G|--1--|   x8
D|--2--|   
A|--2--|   
E|--0--|  

e|--4--|
B|--5--|
G|--6--|  x8
D|--6--|
A|--4--|
E|--x--|

e|--2--|
B|--2--|
G|--3--|
D|--4--|  x8
A|--4--|
E|--2--|

e|--0--0--0--0--0--0--0--0--4--------2--|
B|--0--0--0--0--0--0--0--0--5--------4--|
G|--1--1--1--1--1--1--1--1--6--------4--|
D|--2--2--2--2--2--2--2--2--6--------4--|
A|--2--2--2--2--2--2--2--2--4--------2--|
E|--0--0--0--0--0--0--0--0--x--------x--|

Pause
                                                                                        
                                                                                                         
e|----------------------------------------------------------------------------------------|               
B|-------------------------------------------7------7-------7------7-------7-----7--------|              
G|-----8-----8------8----8-----8------8---------------------------------------------------|
D|--9-----9-----9-----9-----9-----9------9------9------9-------9-------9-------9----------|
A|----------------------------------------------------------------------------------------|
E|----------------------------------------------------------------------------------------|
                                                                                     ---------------------|
e|--7--7--7--7--7--7--7--7--7--7--7--7--6--7--6--7-----------------------------------------|             
B|--------------------------------------------------9--9--9--9--9--9--9--9--9--9--9--9-----|
G|-----------------------------------------------------------------------------------------|
D|-----------------------------------------------------------------------------------------|
A|-----------------------------------------------------------------------------------------|
E|-----------------------------------------------------------------------------------------|
                                                                                                         x2
e|--/11--11--11--11--11--11--11--11--11--11--11--11--14--14--14--14--14--14--14--14--14--14--14--14--|
B|---------------------------------------------------------------------------------------------------|
G|---------------------------------------------------------------------------------------------------|
D|---------------------------------------------------------------------------------------------------|
A|---------------------------------------------------------------------------------------------------|
E|---------------------------------------------------------------------------------------------------|    |
                                                                                                          |
                                                                                   -----------------------|


************************************

| /   slide up
| \   slide down
| h   hammer-on
| p   pull-off
| ~   vibrato
| +   harmonic
| x   Mute note
| b   Bend
| pb  Pre-bend
| br  Bend release
| pbr Pre-bend release
| brb Bend release bend

************************************

            
            
Suggest correction
Creating personal tab
Creating personal tab
You can edit any tab online and save it as your Personal.

You can edit, replace or remove any tab part or add personal notes – all changes will be seen only by you.

Personal tabs can be accessed anytime from any device, even offline.
Learn more »
Give kudos to tab author, rate the tab!
1 2 3 4 5
comments
print report bad tab
guest
You may want to rate the tab now too:
select rating
Wanna post a correction for this tab? Suggest correction