Oops, an error
Loading. Please wait.

Lets Dance To Joy Division tab

version 3
version 3

Whole song

Interactive

146,685 views 186 this week
14 commentsread comments
1 2 3 4 5
x 62
add to favorites
×
Save as Personal and add changes to this tab that will be seen only by you. Learn more ›
×
You can save this tab as Personal to edit and correct it or add notes. All changes will be seen only by you. Learn more »
launch autoscroll
font size
0
reset
how to read this tab
guitar tuner
edit
Autoscroll
slow
fast
+/-
esc
set tempo
stop
Author
=========================================
The Wombats - Lets Dance To Joy Division
=========================================

Brilliant tune. Enjoy.
Tuning: Standard EADGBe


[Intro]

e|---x---x---x-x-x-x-x-x-|---x---x---x-x-x-x---x-|
B|---x---x---x-x-x-x-x-x-|---x---x---x-x-x-x---x-|
G|---x---x---x-x-x-x-x-x-|---8---8---x-8-8-8---x-|
D|---9---9---x-9-9-9-9-9-|-x---x---x-x-x-x-x---8-|
A|-x---x---x-x-x-x-x-x-x-|-6---6---6-x-6-6-6-x---|
E|-7---7---7-x-7-7-7-7-7-|-----------x-------6---|

e|---x---x---x-x-------------|---x---x---x-----------|
B|---x---x---x-x-------------|---x---x---x-----------|
G|---x---x---x-x-------------|---9---9---x-9-9-9-9-9-|
D|---7---7---x-7/11-11-11-11-|-x---x---x-x-x-x-x-x-x-|
A|-x---x---x-x-x-x--x--x--x--|-7---7---7-x-7-7-7-7-7-|
E|-5---5---5-x-5/9--9--9--9--|-----------x-----------|


[Intro 2] 

 (Bass kicks in)
e|---x---x---x-x-x-x-x-x-|---x---x---x-x-x-x---x-|
B|---x---x---x-x-x-x-x-x-|---x---x---x-x-x-x---x-|
G|---x---x---x-x-x-x-x-x-|---8---8---x-8-8-8---x-|
D|---9---9---x-9-9-9-9-9-|-x---x---x-x-x-x-x---8-|
A|-x---x---x-x-x-x-x-x-x-|-6---6---6-x-6-6-6-x---|
E|-7---7---7-x-7-7-7-7-7-|-----------x-------6---|

e|---x---x---x-x-------------|---x---x---x---------------|
B|---x---x---x-x-------------|---x---x---x---------------|
G|---x---x---x-x-------------|---9---9---x-9/13-13-13-13-|
D|---7---7---x-7/11-11-11-11-|-x---x---x-x-x-x--x--x--x--|
A|-x---x---x-x-x-x--x--x--x--|-7---7---7-x-7/11-11-11-11-|
E|-5---5---5-x-5/9--9--9--9--|-----------x---------------|


[Verse]

e|--7~-----------------|--6~-----------------|--x-----------------|
B|--7~-----------------|--7~-----------------|--x-----------------|
G|--8~-----------------|--8~-----------------|--6~----------------|
D|--9~-----------------|--8~-----------------|--7~----------------|
A|--9~-----------------|--6~-----------------|--7~----------------|
E|--7~-----------------|---------------------|--5~----------------|
 'I'm back in Liverpool...'

e|--x-----------------|
B|--x-----------------|
G|--1~----------------|
D|--2~----------------|
A|--2~----------------|
E|--0-----------------|(x2)


[Chorus]

e|--7-7-7-7-7-7-7-7-|-2-2-2-2-2-2-4-4-4-|-5-5-5-5-5-5-5-5-|
B|--7-7-7-7-7-7-7-7-|-2-2-2-2-2-2-4-4-4-|-5-5-5-5-5-5-5-5-|
G|--8-8-8-8-8-8-8-8-|-3-3-3-3-3-3-4-4-4-|-6-6-6-6-6-6-6-6-|
D|--9-9-9-9-9-9-9-9-|-4-4-4-4-4-4-6-6-6-|-7-7-7-7-7-7-7-7-|
A|--9-9-9-9-9-9-9-9-|-4-4-4-4-4-4-6-6-6-|-7-7-7-7-7-7-7-7-|
E|--7-7-7-7-7-7-7-7-|-2-2-2-2-2-2-4-4-4-|-5-5-5-5-5-5-5-5-|

e|-0-0-0-0-0-0-4-4-4-|
B|-0-0-0-0-0-0-4-4-4-|
G|-1-1-1-1-1-1-4-4-4-|
D|-2-2-2-2-2-2-6-6-6-|
A|-2-2-2-2-2-2-6-6-6-| x2 (Second time round play 'E' Chord for 2 bars)
E|-0-0-0-0-0-0-4-4-4-|


[Intro Part 2]

[Verse] (no guitar)

[Verse] (x1)

[Chorus] (x1)


[Keyboard Part]

   1 2 3 4  1 2 3 4  1 2 3 4  1 2 3 4
e|--------|--------|--------|--------|
B|-12~----|-7~--9~-|-10~----|-5~-----|
G|--------|--------|--------|--------|
D|--------|--------|--------|--------| Repeat x4
A|--------|--------|--------|--------|
E|--------|--------|--------|--------|


[Bridge]

e|--7-7-7-x-x-x-x-x-x-x-x-x-|-2-2-2-x-x-x-x-x-x-x-x-x-|
B|--7-7-7-x-x-7-7-9-9-7-7-5-|-2-2-2-x-x-7-7-9-9-7-7-5-|
G|--8-8-8-x-x-x-x-x-x-x-x-x-|-3-3-3-x-x-x-x-x-x-x-x-x-|
D|--9-9-9-x-x-x-x-x-x-x-x-x-|-4-4-4-x-x-x-x-x-x-x-x-x-|
A|--9-9-9-x-x-x-x-x-x-x-x-x-|-4-4-4-x-x-x-x-x-x-x-x-x-|
E|--7-7-7-x-x-x-x-x-x-x-x-x-|-2-2-2-x-x-x-x-x-x-x-x-x-|

e|-5-5-5-x-x-x-x-x-x-x-x-x-|-7-7-7-x-x--x-x-x-x-x-x-x-|
B|-5-5-5-x-x-7-7-9-9-7-7-5-|-9-9-9-x-x--7-7-9-9-7-7-5-|
G|-6-6-6-x-x-x-x-x-x-x-x-x-|-9-9-9-x-x--x-x-x-x-x-x-x-|
D|-7-7-7-x-x-x-x-x-x-x-x-x-|-9-9-9-x-x--x-x-x-x-x-x-x-|
A|-7-7-7-x-x-x-x-x-x-x-x-x-|-7-7-7-x-x--x-x-x-x-x-x-x-|
E|-5-5-5-x-x-x-x-x-x-x-x-x-|-x-x-x-x-x--x-x-x-x-x-x-x-|


[Bridge Part 2]

e|--7-7-7-x-x-x-x-x-x-x-x-x-|-2-2-2-x-x-x-x-x-x-x-x-x-|
B|--7-7-7-x-x-7-7-9-9-7-7-5-|-2-2-2-x-x-7-7-9-9-7-7-5-|
G|--8-8-8-x-x-x-x-x-x-x-x-x-|-3-3-3-x-x-x-x-x-x-x-x-x-|
D|--9-9-9-x-x-x-x-x-x-x-x-x-|-4-4-4-x-x-x-x-x-x-x-x-x-|
A|--9-9-9-x-x-x-x-x-x-x-x-x-|-4-4-4-x-x-x-x-x-x-x-x-x-|
E|--7-7-7-x-x-x-x-x-x-x-x-x-|-2-2-2-x-x-x-x-x-x-x-x-x-|

                            (Slowly bend up to 12)
e|-5-5-5-x-x-x-x-x-x-x-x-x-|-x---x--x--x--x--x---x---x---|
B|-5-5-5-x-x-7-7-9-9-7-7-5-|-1-1b~~~~~~~~~~~~1-2-1-2-1-2-|
G|-6-6-6-x-x-x-x-x-x-x-x-x-|-x---x--x--x--x--x---x---x---|
D|-7-7-7-x-x-x-x-x-x-x-x-x-|-x---x--x--x--x--x---x---x---|
A|-7-7-7-x-x-x-x-x-x-x-x-x-|-9---9--9--9--9--9---9---x---|
E|-5-5-5-x-x-x-x-x-x-x-x-x-|-x---x--x--x--x--x---x---x---|


[Chorus] (x1) Then Finish


************************************

| x  Dead note
| /  Slide up
| ~  Vibrato
| b  bend

************************************

            
            
Suggest correction
Creating personal tab
Creating personal tab
You can edit any tab online and save it as your Personal.

You can edit, replace or remove any tab part or add personal notes – all changes will be seen only by you.

Personal tabs can be accessed anytime from any device, even offline.
Learn more »
comments
print report bad tab
14 comments total. Showing first comments. show 1 bad comment
+4 reply
FrenchyFungus 520 Feb 08, 2008 04:55 AM

Sounds good

+3 reply
bencooke7 10 Apr 10, 2008 05:54 AM

Great song and great tab.

guest
You may want to rate the tab now too:
select rating
Wanna post a correction for this tab? Suggest correction