Oops, an error
Loading. Please wait.

Little Miss Pipedream bass

version 2
version 2

Whole song

801 views 1 this week
no commentswrite comment
1 2 3 4 5
1 last vote to show rating
add to favorites
×
Save as Personal and add changes to this tab that will be seen only by you. Learn more ›
×
You can save this tab as Personal to edit and correct it or add notes. All changes will be seen only by you. Learn more »
launch autoscroll
font size
0
reset
guitar tuner
edit
Autoscroll
slow
fast
+/-
esc
set tempo
stop
Author
Difficulty
-----------------------------------------------------------------------------
			     Little Miss Pipedream - The Wombats
-----------------------------------------------------------------------------

A brilliant song by The Wombats!
I think this tab is more difficult than ver1.
It must be correct, but if not please comment.. And don't forget to rate.
Much fun ;)


Tabbed By :Joel B. 

Tuning: Standard


Intro: Bass comes in at 0:03.

G|----------------------------------|
D|---2---2---2---2---2---2---2---2--|
A|----------------------------------|
E|-0---0---0---0---0---0---0---0----|

Verse:

..I think the postman intercepts everything I try and.. 
G|----------------------------------|
D|---2---2---2---2---2---2---4---6--|
A|----------------------------------|
E|-0---0---0---0---0---0---0---4----|

..send to you..
G|------------------|
D|---7---7---7---7--|
A|------------------|
E|-5---5---5---5----|

..'Cos he's infatuated and he's the fulcrum between ..
G|----------------------------------|
D|---2---2---2---2---2---2---4---6--|
A|----------------------------------|
E|-0---0---0---0---0---0---0---4----|

..us two..
G|------------------|
D|---7---7---7---7--|
A|------------------|
E|-5---5---5---5----|

..And i can't say i blame him 'cos i'd cheat a priest just to get to you..
G|----------------------------------|
D|---9---9---9---9---7---7--7-7-7~--|
A|----------------------------------|
E|-7---7---7---7---5---5----5-5-5~--|

      ..Oooooo..
G|----------------------------------|
D|---2---2---2---2---2---2----------|
A|----------------------------------|
E|-0---0---0---0---0---0---0--------|

..She works in a dental practice 9 'till 5 how does she manage?..
G|----------------------------------|
D|---2---2---2---2---2---2---4---6--|
A|----------------------------------|
E|-0---0---0---0---0---0---0---4----|

..Considering her nights don't pass out 'till 3..
G|----------------------------------|
D|---7---7---7---7---2---2---2---2--|
A|----------------------------------|
E|-5---5---5---5---0---0---0---0----|

..So I guess that flossing is he last thing in her health..
G|----------------------------------|
D|---9---9---9---9---7---7--7-7-7~--|
A|----------------------------------|
E|-7---7---7---7---5---5----5-5-5~--|

..routine..            ..Oooooo..
G|----------------------------------|
D|---2---2---2---2---2---2---4---6--|
A|----------------------------------|
E|-0---0---0---0---0---0---0---4----|

Chorus:

..And I don't mind that she gets hammered and goes home with other guys..
G|----------------------------------|
D|---7---7---7---7---6---6---9---9--|
A|----------------------------------|
E|-5---5---5---5---4---4---7---7----|

..There's no jealousy 'cos she's little pipedream fantasy..
G|----------------------------------|
D|---7---7---7---7------------------|
A|----------------------------------|
E|-5---5---5---5----5~--------------|

Middle:
                          ..Oooooo..
G|----------------------------------|
D|---2---2---2---2---2---2---4---6--|
A|----------------------------------|
E|-0---0---0---0---0---0---0---4----|

             ..Oooooo..
G|----------------------------------|
D|---7---7---7---7---7---7---9---11-|
A|----------------------------------|
E|-5---5---5---5---5---5---7---9----|

             ..Oooooo..
G|----------------------------------|
D|---2---2---2---2---2---2---4---6--|
A|----------------------------------|
E|-0---0---0---0---0---0---0---4----|

            ..Oooooo..
G|----------------------------------|
D|---7---7---7---7---7---7---9---11-|
A|----------------------------------|
E|-5---5---5---5---5---5---7---9----|

            ..Oooooo..
G|----------------------------------|
D|---2---2---2---2---4---4---6---6--|
A|----------------------------------|
E|-0---0---0---0---2---2---4---4----|

..I saw her slam back tequila's.. 
G|----------------------------------|
D|---7--7---7--7---9--9---9--9------|
A|----------------------------------|
E|-5---5--5---5--7---7--7---7-------|

..like Oliver Reed on an Irish stag doo..
G|----------------------------------|
D|---11--11---11--11---7---7---7--7-|
A|----------------------------------|
E|-9----9---9----9---5----5--5---5--|

..And I'll wait if you stay because foggy.. 
G|----------------------------------|
D|---7--7---7--7---9--9---9---6---11|
A|----------------------------------|
E|-5---5--5---5--7---7--7---8---9---|

..London town's not built for me or you..
G|----------------------------------|
D|--11----12---12---7--7---7--7-----|
A|----------------------------------|
E|-9---10----10---5---5--5---5------|

..Don't leave Miss Pipedream 'cos i love..
G|---------------|
D|---------------|
A|---------------|
E|-5--~----~-----|

..you!..             ..Oooooo..
G|----------------------------------|
D|---2---2---2---2---2---2---4---6--|
A|----------------------------------|
E|-0---0---0---0---0---0---0---4----|

             ..Oooooo..
G|----------------------------------|
D|---7---7---7---7---7---7---7---9--|
A|----------------------------------|
E|-5---5---5---5---5---5---5---7----|

            ..Oooooo..
G|----------------------------------|
D|---2---2---2---2---4---4---6---6--|
A|----------------------------------|
E|-0---0---0---0---2---2---4---4----|

Break:
..And i don't mind that she gets hammered and goes home with other guys
There's no jealousy though she'll grind it out with friends but not with me
She's my little miss pipedream.. 

End:
..fantasy..   ..Oooooo..
G|----------------------------------|
D|---2---2---2---2---2---2---4---6--|
A|----------------------------------|
E|-0---0---0---0---0---0---0---4----|

            ..Oooooo..
G|----------------------------------| \
D|---7---7---7---7---11--11--13---13|  |
A|----------------------------------|  |
E|-5---5---5---5---9---9---11---11--|  | 
                                       |
            ..Oooooo..                 |x2
G|----------------------------------|  |
D|---2---2---2---2---4---4---6---6--|  |
A|----------------------------------|  |
E|-0---0---0---0---2---2---4---4----| /

            ..Oooooo..
G|---------------------------------------| 
D|---7----7---7----7--11---11---13----13-|  
A|---------------------------------------|  
E|-5--5-5---5--5-5---9--9-9---11--1111---| 

G|------------------------------------| 
D|---2---2----2---2----4---4----6---6-| 
A|------------------------------------| 
E|-0--0-0---0--0-0---2--2-2---4--4-4--|

            ..Oooooo..
G|---------------------------------------| 
D|---7----7---7----7--11---11---13----13-|  
A|---------------------------------------|  
E|-5--5-5---5--5-5---9--9-9---11--1111---| 

G|------------------------------------| 
D|---2---2----2---2----2---2----------| 
A|------------------------------------| 
E|-0--0-0---0--0-0---0--0-0---0--~----|



| /  slide up
| \  slide down
| h  hammer-on
| p  pull-off
| ~  vibrato
| +  harmonic
| x  Mute note
===============================================================================

            
            
Suggest correction
Creating personal tab
Creating personal tab
You can edit any tab online and save it as your Personal.

You can edit, replace or remove any tab part or add personal notes – all changes will be seen only by you.

Personal tabs can be accessed anytime from any device, even offline.
Learn more »
Give kudos to tab author, rate the tab!
1 2 3 4 5
comments
print report bad tab
guest
You may want to rate the tab now too:
select rating
Wanna post a correction for this tab? Suggest correction